  0
SECTION
  2
HEADER
  9
$ACADVER
  1
AC1015
  9
$ACADMAINTVER
 70
    18
  9
$DWGCODEPAGE
  3
ANSI_1252
  9
$INSBASE
 10
0.0
 20
0.0
 30
0.0
  9
$EXTMIN
 10
0.0
 20
0.0
 30
0.0
  9
$EXTMAX
 10
3300.0
 20
1500.0
 30
0.0
  9
$LIMMIN
 10
0.0
 20
0.0
  9
$LIMMAX
 10
3300.0
 20
1500.0
  9
$ORTHOMODE
 70
     0
  9
$REGENMODE
 70
     1
  9
$FILLMODE
 70
     1
  9
$QTEXTMODE
 70
     0
  9
$MIRRTEXT
 70
     0
  9
$LTSCALE
 40
1.0
  9
$ATTMODE
 70
     1
  9
$TEXTSIZE
 40
0.2
  9
$TRACEWID
 40
0.05
  9
$TEXTSTYLE
  7
Standard
  9
$CLAYER
  8
0
  9
$CELTYPE
  6
ByLayer
  9
$CECOLOR
 62
   256
  9
$CELTSCALE
 40
1.0
  9
$DISPSILH
 70
     0
  9
$DIMSCALE
 40
1.0
  9
$DIMASZ
 40
1.799999999999999
  9
$DIMEXO
 40
0.0625
  9
$DIMDLI
 40
0.38
  9
$DIMRND
 40
0.0
  9
$DIMDLE
 40
0.0
  9
$DIMEXE
 40
0.18
  9
$DIMTP
 40
0.0
  9
$DIMTM
 40
0.0
  9
$DIMTXT
 40
0.3499999940395355
  9
$DIMCEN
 40
0.09
  9
$DIMTSZ
 40
0.0
  9
$DIMTOL
 70
     0
  9
$DIMLIM
 70
     0
  9
$DIMTIH
 70
     1
  9
$DIMTOH
 70
     1
  9
$DIMSE1
 70
     0
  9
$DIMSE2
 70
     0
  9
$DIMTAD
 70
     0
  9
$DIMZIN
 70
     0
  9
$DIMBLK
  1

  9
$DIMASO
 70
     1
  9
$DIMSHO
 70
     1
  9
$DIMPOST
  1

  9
$DIMAPOST
  1

  9
$DIMALT
 70
     0
  9
$DIMALTD
 70
     2
  9
$DIMALTF
 40
25.4
  9
$DIMLFAC
 40
1.0
  9
$DIMTOFL
 70
     0
  9
$DIMTVP
 40
0.0
  9
$DIMTIX
 70
     0
  9
$DIMSOXD
 70
     0
  9
$DIMSAH
 70
     0
  9
$DIMBLK1
  1

  9
$DIMBLK2
  1

  9
$DIMSTYLE
  2
Standard
  9
$DIMCLRD
 70
     0
  9
$DIMCLRE
 70
     0
  9
$DIMCLRT
 70
     0
  9
$DIMTFAC
 40
1.0
  9
$DIMGAP
 40
0.09
  9
$DIMJUST
 70
     0
  9
$DIMSD1
 70
     0
  9
$DIMSD2
 70
     0
  9
$DIMTOLJ
 70
     1
  9
$DIMTZIN
 70
     0
  9
$DIMALTZ
 70
     0
  9
$DIMALTTZ
 70
     0
  9
$DIMUPT
 70
     0
  9
$DIMDEC
 70
     4
  9
$DIMTDEC
 70
     4
  9
$DIMALTU
 70
     2
  9
$DIMALTTD
 70
     2
  9
$DIMTXSTY
  7
Standard
  9
$DIMAUNIT
 70
     0
  9
$DIMADEC
 70
     0
  9
$DIMALTRND
 40
0.0
  9
$DIMAZIN
 70
     0
  9
$DIMDSEP
 70
    46
  9
$DIMATFIT
 70
     3
  9
$DIMFRAC
 70
     0
  9
$DIMLDRBLK
  1

  9
$DIMLUNIT
 70
     2
  9
$DIMLWD
 70
    -2
  9
$DIMLWE
 70
    -2
  9
$DIMTMOVE
 70
     0
  9
$LUNITS
 70
     2
  9
$LUPREC
 70
     4
  9
$SKETCHINC
 40
0.1
  9
$FILLETRAD
 40
0.0
  9
$AUNITS
 70
     0
  9
$AUPREC
 70
     0
  9
$MENU
  1
.
  9
$ELEVATION
 40
0.0
  9
$PELEVATION
 40
0.0
  9
$THICKNESS
 40
0.0
  9
$LIMCHECK
 70
     0
  9
$CHAMFERA
 40
0.0
  9
$CHAMFERB
 40
0.0
  9
$CHAMFERC
 40
0.0
  9
$CHAMFERD
 40
0.0
  9
$SKPOLY
 70
     0
  9
$TDCREATE
 40
2454089.536219329
  9
$TDUCREATE
 40
2454089.494552662
  9
$TDUPDATE
 40
2454089.536219329
  9
$TDUUPDATE
 40
2454089.494552662
  9
$TDINDWG
 40
0.0000467245
  9
$TDUSRTIMER
 40
0.0000467245
  9
$USRTIMER
 70
     1
  9
$ANGBASE
 50
0.0
  9
$ANGDIR
 70
     0
  9
$PDMODE
 70
     0
  9
$PDSIZE
 40
0.0
  9
$PLINEWID
 40
0.0
  9
$SPLFRAME
 70
     0
  9
$SPLINETYPE
 70
     6
  9
$SPLINESEGS
 70
     8
  9
$HANDSEED
  5
430
  9
$SURFTAB1
 70
     6
  9
$SURFTAB2
 70
     6
  9
$SURFTYPE
 70
     6
  9
$SURFU
 70
     6
  9
$SURFV
 70
     6
  9
$UCSBASE
  2

  9
$UCSNAME
  2

  9
$UCSORG
 10
0.0
 20
0.0
 30
0.0
  9
$UCSXDIR
 10
1.0
 20
0.0
 30
0.0
  9
$UCSYDIR
 10
0.0
 20
1.0
 30
0.0
  9
$UCSORTHOREF
  2

  9
$UCSORTHOVIEW
 70
     0
  9
$UCSORGTOP
 10
0.0
 20
0.0
 30
0.0
  9
$UCSORGBOTTOM
 10
0.0
 20
0.0
 30
0.0
  9
$UCSORGLEFT
 10
0.0
 20
0.0
 30
0.0
  9
$UCSORGRIGHT
 10
0.0
 20
0.0
 30
0.0
  9
$UCSORGFRONT
 10
0.0
 20
0.0
 30
0.0
  9
$UCSORGBACK
 10
0.0
 20
0.0
 30
0.0
  9
$PUCSBASE
  2

  9
$PUCSNAME
  2

  9
$PUCSORG
 10
0.0
 20
0.0
 30
0.0
  9
$PUCSXDIR
 10
1.0
 20
0.0
 30
0.0
  9
$PUCSYDIR
 10
0.0
 20
1.0
 30
0.0
  9
$PUCSORTHOREF
  2

  9
$PUCSORTHOVIEW
 70
     0
  9
$PUCSORGTOP
 10
0.0
 20
0.0
 30
0.0
  9
$PUCSORGBOTTOM
 10
0.0
 20
0.0
 30
0.0
  9
$PUCSORGLEFT
 10
0.0
 20
0.0
 30
0.0
  9
$PUCSORGRIGHT
 10
0.0
 20
0.0
 30
0.0
  9
$PUCSORGFRONT
 10
0.0
 20
0.0
 30
0.0
  9
$PUCSORGBACK
 10
0.0
 20
0.0
 30
0.0
  9
$USERI1
 70
     0
  9
$USERI2
 70
     0
  9
$USERI3
 70
     0
  9
$USERI4
 70
     0
  9
$USERI5
 70
     0
  9
$USERR1
 40
0.0
  9
$USERR2
 40
0.0
  9
$USERR3
 40
0.0
  9
$USERR4
 40
0.0
  9
$USERR5
 40
0.0
  9
$WORLDVIEW
 70
     1
  9
$SHADEDGE
 70
     3
  9
$SHADEDIF
 70
    70
  9
$TILEMODE
 70
     1
  9
$MAXACTVP
 70
    64
  9
$PINSBASE
 10
0.0
 20
0.0
 30
0.0
  9
$PLIMCHECK
 70
     0
  9
$PEXTMIN
 10
0.0
 20
0.0
 30
0.0
  9
$PEXTMAX
 10
3300.0
 20
1500.0
 30
0.0
  9
$PLIMMIN
 10
0.0
 20
0.0
  9
$PLIMMAX
 10
3300.0
 20
1500.0
  9
$UNITMODE
 70
     0
  9
$VISRETAIN
 70
     1
  9
$PLINEGEN
 70
     0
  9
$PSLTSCALE
 70
     1
  9
$TREEDEPTH
 70
  3020
  9
$CMLSTYLE
  2
Standard
  9
$CMLJUST
 70
     0
  9
$CMLSCALE
 40
1.0
  9
$PROXYGRAPHICS
 70
     1
  9
$MEASUREMENT
 70
     1
  9
$CELWEIGHT
370
    -1
  9
$ENDCAPS
280
     0
  9
$JOINSTYLE
280
     0
  9
$LWDISPLAY
290
     0
  9
$INSUNITS
 70
     0
  9
$HYPERLINKBASE
  1

  9
$STYLESHEET
  1

  9
$XEDIT
290
     1
  9
$CEPSNTYPE
380
     0
  9
$PSTYLEMODE
290
     1
  9
$FINGERPRINTGUID
  2
{BF869A14-58A8-49F2-BB71-4FCE9738A376}
  9
$VERSIONGUID
  2
{EE66FD8A-EB65-4146-82E9-D35469548E9C}
  9
$EXTNAMES
290
     1
  9
$PSVPSCALE
 40
0.0
  9
$OLESTARTUP
290
     0
  0
ENDSEC
  0
SECTION
  2
CLASSES
  0
CLASS
  1
ACDBDICTIONARYWDFLT
  2
AcDbDictionaryWithDefault
  3
ObjectDBX Classes
 90
        0
280
     0
281
     0
  0
CLASS
  1
MATERIAL
  2
AcDbMaterial
  3
ObjectDBX Classes
 90
     1024
280
     0
281
     0
  0
CLASS
  1
VISUALSTYLE
  2
AcDbVisualStyle
  3
ObjectDBX Classes
 90
     4095
280
     0
281
     0
  0
CLASS
  1
TABLESTYLE
  2
AcDbTableStyle
  3
ObjectDBX Classes
 90
     4095
280
     0
281
     0
  0
CLASS
  1
DICTIONARYVAR
  2
AcDbDictionaryVar
  3
ObjectDBX Classes
 90
        0
280
     0
281
     0
  0
CLASS
  1
ACDBPLACEHOLDER
  2
AcDbPlaceHolder
  3
ObjectDBX Classes
 90
        0
280
     0
281
     0
  0
CLASS
  1
LAYOUT
  2
AcDbLayout
  3
ObjectDBX Classes
 90
        0
280
     0
281
     0
  0
ENDSEC
  0
SECTION
  2
TABLES
  0
TABLE
  2
VPORT
  5
8
330
0
100
AcDbSymbolTable
 70
     1
  0
VPORT
  5
28
330
8
100
AcDbSymbolTableRecord
100
AcDbViewportTableRecord
  2
*Active
 70
     0
 10
0.0
 20
0.0
 11
1.0
 21
1.0
 12
1650.0
 22
750.0
 13
0.0
 23
0.0
 14
1.0
 24
1.0
 15
0.0
 25
0.0
 16
0.0
 26
0.0
 36
1.0
 17
0.0
 27
0.0
 37
0.0
 40
1500.0
 41
2.2
 42
50.0
 43
0.0
 44
0.0
 50
0.0
 51
0.0
 71
     0
 72
   100
 73
     1
 74
     1
 75
     0
 76
     0
 77
     0
 78
     0
281
     0
 65
     1
110
0.0
120
0.0
130
0.0
111
1.0
121
0.0
131
0.0
112
0.0
122
1.0
132
0.0
 79
     0
146
0.0
  0
ENDTAB
  0
TABLE
  2
LTYPE
  5
5
330
0
100
AcDbSymbolTable
 70
    59
  0
LTYPE
  5
29
330
5
100
AcDbSymbolTableRecord
100
AcDbLinetypeTableRecord
  2
ByBlock
 70
     0
  3

 72
    65
 73
     0
 40
0.0
  0
LTYPE
  5
2A
330
5
100
AcDbSymbolTableRecord
100
AcDbLinetypeTableRecord
  2
ByLayer
 70
     0
  3

 72
    65
 73
     0
 40
0.0
  0
LTYPE
  5
2B
330
5
100
AcDbSymbolTableRecord
100
AcDbLinetypeTableRecord
  2
Continuous
 70
     0
  3
Solid line
 72
    65
 73
     0
 40
0.0
  0
LTYPE
  5
40
330
5
100
AcDbSymbolTableRecord
100
AcDbLinetypeTableRecord
  2
Section_View_Lines
 70
     0
  3
Section View Lines
 72
    65
 73
     4
 40
0.8406
 49
0.6614
 74
     0
 49
-0.0827
 74
     0
 49
0.0138
 74
     0
 49
-0.0827
 74
     0
  0
LTYPE
  5
41
330
5
100
AcDbSymbolTableRecord
100
AcDbLinetypeTableRecord
  2
CHAIN
 70
     0
  3
Chain ____ _ ____ _ ____ _ ____ _ ____ _ ____
 72
    65
 73
     4
 40
0.3543
 49
0.2362
 74
     0
 49
-0.0295
 74
     0
 49
0.0591
 74
     0
 49
-0.0295
 74
     0
  0
LTYPE
  5
42
330
5
100
AcDbSymbolTableRecord
100
AcDbLinetypeTableRecord
  2
DASH_DOT
 70
     0
  3
Dash dot _._._._._._._._._._._._._._._.
 72
    65
 73
     4
 40
0.37
 49
0.24
 74
     0
 49
-0.06
 74
     0
 49
0.01
 74
     0
 49
-0.06
 74
     0
  0
LTYPE
  5
43
330
5
100
AcDbSymbolTableRecord
100
AcDbLinetypeTableRecord
  2
DASH_DOUBLE_DOT
 70
     0
  3
Dash Double Dot __ __ . __ __ . __ __ . __ _
 72
    65
 73
     6
 40
0.4398000000000001
 49
0.24
 74
     0
 49
-0.06
 74
     0
 49
0.0098
 74
     0
 49
-0.06
 74
     0
 49
0.01
 74
     0
 49
-0.06
 74
     0
  0
LTYPE
  5
44
330
5
100
AcDbSymbolTableRecord
100
AcDbLinetypeTableRecord
  2
DASH_TRIPLE_DOT
 70
     0
  3
Dash Triple-Dot _ . . . _ . . . _ . . . _
 72
    65
 73
     8
 40
0.51
 49
0.24
 74
     0
 49
-0.06
 74
     0
 49
0.01
 74
     0
 49
-0.06
 74
     0
 49
0.01
 74
     0
 49
-0.06
 74
     0
 49
0.01
 74
     0
 49
-0.06
 74
     0
  0
LTYPE
  5
45
330
5
100
AcDbSymbolTableRecord
100
AcDbLinetypeTableRecord
  2
DASHED
 70
     0
  3
Dashed __ __ __ __ __ __ __ __ __ __ __ __ __ _
 72
    65
 73
     2
 40
0.2067
 49
0.1654
 74
     0
 49
-0.0413
 74
     0
  0
LTYPE
  5
46
330
5
100
AcDbSymbolTableRecord
100
AcDbLinetypeTableRecord
  2
DASHED_SPACE
 70
     0
  3
Dashed Space _._._._._._._._._._._._._._._.
 72
    65
 73
     2
 40
0.2067
 49
0.1654
 74
     0
 49
-0.0413
 74
     0
  0
LTYPE
  5
47
330
5
100
AcDbSymbolTableRecord
100
AcDbLinetypeTableRecord
  2
DOTTED
 70
     0
  3
Dotted . . . . . . . . . . . . . . . . . . . . 
 72
    65
 73
     2
 40
0.0482
 49
0.0069
 74
     0
 49
-0.0413
 74
     0
  0
LTYPE
  5
48
330
5
100
AcDbSymbolTableRecord
100
AcDbLinetypeTableRecord
  2
DOUBLE_DASH_CHAIN
 70
     0
  3
Double Dash Chain ___ _ _ ___ _ _ ___ _ _ ___ _
 72
    65
 73
     6
 40
1.240299999999998
 49
0.6614
 74
     0
 49
-0.0827
 74
     0
 49
0.1654
 74
     0
 49
-0.0827
 74
     0
 49
0.1654
 74
     0
 49
-0.0827
 74
     0
  0
LTYPE
  5
49
330
5
100
AcDbSymbolTableRecord
100
AcDbLinetypeTableRecord
  2
DOUBLE_DASH_DOT
 70
     0
  3
Double Dash Dot __ __ . __ __ . __ __ . __ _
 72
    65
 73
     6
 40
0.6700000000000001
 49
0.24
 74
     0
 49
-0.06
 74
     0
 49
0.24
 74
     0
 49
-0.06
 74
     0
 49
0.01
 74
     0
 49
-0.06
 74
     0
  0
LTYPE
  5
4A
330
5
100
AcDbSymbolTableRecord
100
AcDbLinetypeTableRecord
  2
DOUBLE_DASH_DOUBLE_DOT
 70
     0
  3
Double-dash double-dot _ _ . . _ _ . . _
 72
    65
 73
     8
 40
0.7400000000000002
 49
0.24
 74
     0
 49
-0.06
 74
     0
 49
0.24
 74
     0
 49
-0.06
 74
     0
 49
0.01
 74
     0
 49
-0.06
 74
     0
 49
0.01
 74
     0
 49
-0.06
 74
     0
  0
LTYPE
  5
4B
330
5
100
AcDbSymbolTableRecord
100
AcDbLinetypeTableRecord
  2
DOUBLE_DASH_TRIPLE_DOT
 70
     0
  3
Double Dash Triple Dot __ __ . . . __ __ . . .
 72
    65
 73
    10
 40
0.8100000000000001
 49
0.24
 74
     0
 49
-0.06
 74
     0
 49
0.24
 74
     0
 49
-0.06
 74
     0
 49
0.01
 74
     0
 49
-0.06
 74
     0
 49
0.01
 74
     0
 49
-0.06
 74
     0
 49
0.01
 74
     0
 49
-0.06
 74
     0
  0
LTYPE
  5
4C
330
5
100
AcDbSymbolTableRecord
100
AcDbLinetypeTableRecord
  2
LONG_DASH_DOTTED
 70
     0
  3
Long-Dash Dot ____ . ____ . ____ . ____ . _
 72
    65
 73
     4
 40
0.3001
 49
0.2362
 74
     0
 49
-0.0295
 74
     0
 49
0.0049
 74
     0
 49
-0.0295
 74
     0
  0
LTYPE
  5
4D
330
5
100
AcDbSymbolTableRecord
100
AcDbLinetypeTableRecord
  2
LONG_DASH_DOUBLE_DOT
 70
     0
  3
Long Dash Double Dot ____ . . ____ . . ____ . .
 72
    65
 73
     6
 40
0.3345
 49
0.2362
 74
     0
 49
-0.0295
 74
     0
 49
0.0049
 74
     0
 49
-0.0295
 74
     0
 49
0.0049
 74
     0
 49
-0.0295
 74
     0
  0
LTYPE
  5
4E
330
5
100
AcDbSymbolTableRecord
100
AcDbLinetypeTableRecord
  2
LONG_DASH_TRIPLE_DOT
 70
     0
  3
Long Dash Triple Dot ____ ... ____ ... ____
 72
    65
 73
     8
 40
0.75
 49
0.48
 74
     0
 49
-0.06
 74
     0
 49
0.01
 74
     0
 49
-0.06
 74
     0
 49
0.01
 74
     0
 49
-0.06
 74
     0
 49
0.01
 74
     0
 49
-0.06
 74
     0
  0
LTYPE
  5
4F
330
5
100
AcDbSymbolTableRecord
100
AcDbLinetypeTableRecord
  2
BORDER
 70
     0
  3
Border __ __ . __ __ . __ __ . __ __ . __ __ .
 72
    65
 73
     6
 40
44.45
 49
12.7
 74
     0
 49
-6.349999999999998
 74
     0
 49
12.7
 74
     0
 49
-6.349999999999998
 74
     0
 49
0.0
 74
     0
 49
-6.349999999999998
 74
     0
  0
LTYPE
  5
50
330
5
100
AcDbSymbolTableRecord
100
AcDbLinetypeTableRecord
  2
BORDER2
 70
     0
  3
Border (.5x) __.__.__.__.__.__.__.__.__.__.__.
 72
    65
 73
     6
 40
22.225
 49
6.349999999999998
 74
     0
 49
-3.174999999999998
 74
     0
 49
6.349999999999998
 74
     0
 49
-3.174999999999998
 74
     0
 49
0.0
 74
     0
 49
-3.174999999999998
 74
     0
  0
LTYPE
  5
51
330
5
100
AcDbSymbolTableRecord
100
AcDbLinetypeTableRecord
  2
BORDERX2
 70
     0
  3
Border (2x) ____  ____  .  ____  ____  .  ___
 72
    65
 73
     6
 40
88.9
 49
25.4
 74
     0
 49
-12.7
 74
     0
 49
25.4
 74
     0
 49
-12.7
 74
     0
 49
0.0
 74
     0
 49
-12.7
 74
     0
  0
LTYPE
  5
52
330
5
100
AcDbSymbolTableRecord
100
AcDbLinetypeTableRecord
  2
CENTER
 70
     0
  3
Center ____ _ ____ _ ____ _ ____ _ ____ _ ____
 72
    65
 73
     4
 40
50.8
 49
31.75
 74
     0
 49
-6.349999999999998
 74
     0
 49
6.349999999999998
 74
     0
 49
-6.349999999999998
 74
     0
  0
LTYPE
  5
53
330
5
100
AcDbSymbolTableRecord
100
AcDbLinetypeTableRecord
  2
CENTER2
 70
     0
  3
Center (.5x) ___ _ ___ _ ___ _ ___ _ ___ _ ___
 72
    65
 73
     4
 40
28.575
 49
19.05
 74
     0
 49
-3.174999999999998
 74
     0
 49
3.174999999999998
 74
     0
 49
-3.174999999999998
 74
     0
  0
LTYPE
  5
54
330
5
100
AcDbSymbolTableRecord
100
AcDbLinetypeTableRecord
  2
CENTERX2
 70
     0
  3
Center (2x) ________  __  ________  __  _____
 72
    65
 73
     4
 40
101.6
 49
63.5
 74
     0
 49
-12.7
 74
     0
 49
12.7
 74
     0
 49
-12.7
 74
     0
  0
LTYPE
  5
55
330
5
100
AcDbSymbolTableRecord
100
AcDbLinetypeTableRecord
  2
DASHDOT2
 70
     0
  3
Dash dot (.5x) _._._._._._._._._._._._._._._.
 72
    65
 73
     4
 40
12.7
 49
6.349999999999998
 74
     0
 49
-3.174999999999998
 74
     0
 49
0.0
 74
     0
 49
-3.174999999999998
 74
     0
  0
LTYPE
  5
56
330
5
100
AcDbSymbolTableRecord
100
AcDbLinetypeTableRecord
  2
DASHDOTX2
 70
     0
  3
Dash dot (2x) ____  .  ____  .  ____  .  ___
 72
    65
 73
     4
 40
50.8
 49
25.4
 74
     0
 49
-12.7
 74
     0
 49
0.0
 74
     0
 49
-12.7
 74
     0
  0
LTYPE
  5
57
330
5
100
AcDbSymbolTableRecord
100
AcDbLinetypeTableRecord
  2
DASHED2
 70
     0
  3
Dashed (.5x) _ _ _ _ _ _ _ _ _ _ _ _ _ _ _ _ _
 72
    65
 73
     2
 40
9.524999999999996
 49
6.349999999999998
 74
     0
 49
-3.174999999999998
 74
     0
  0
LTYPE
  5
58
330
5
100
AcDbSymbolTableRecord
100
AcDbLinetypeTableRecord
  2
DASHEDX2
 70
     0
  3
Dashed (2x) ____  ____  ____  ____  ____  ___
 72
    65
 73
     2
 40
38.1
 49
25.4
 74
     0
 49
-12.7
 74
     0
  0
LTYPE
  5
59
330
5
100
AcDbSymbolTableRecord
100
AcDbLinetypeTableRecord
  2
DIVIDE
 70
     0
  3
Divide ____ . . ____ . . ____ . . ____ . . ____
 72
    65
 73
     6
 40
31.75
 49
12.7
 74
     0
 49
-6.349999999999998
 74
     0
 49
0.0
 74
     0
 49
-6.349999999999998
 74
     0
 49
0.0
 74
     0
 49
-6.349999999999998
 74
     0
  0
LTYPE
  5
5A
330
5
100
AcDbSymbolTableRecord
100
AcDbLinetypeTableRecord
  2
DIVIDE2
 70
     0
  3
Divide (.5x) __..__..__..__..__..__..__..__.._
 72
    65
 73
     6
 40
15.875
 49
6.349999999999998
 74
     0
 49
-3.174999999999998
 74
     0
 49
0.0
 74
     0
 49
-3.174999999999998
 74
     0
 49
0.0
 74
     0
 49
-3.174999999999998
 74
     0
  0
LTYPE
  5
5B
330
5
100
AcDbSymbolTableRecord
100
AcDbLinetypeTableRecord
  2
DIVIDEX2
 70
     0
  3
Divide (2x) ________  .  .  ________  .  .  _
 72
    65
 73
     6
 40
63.49999999999999
 49
25.4
 74
     0
 49
-12.7
 74
     0
 49
0.0
 74
     0
 49
-12.7
 74
     0
 49
0.0
 74
     0
 49
-12.7
 74
     0
  0
LTYPE
  5
5C
330
5
100
AcDbSymbolTableRecord
100
AcDbLinetypeTableRecord
  2
DOT
 70
     0
  3
Dot . . . . . . . . . . . . . . . . . . . . . .
 72
    65
 73
     2
 40
6.349999999999998
 49
0.0
 74
     0
 49
-6.349999999999998
 74
     0
  0
LTYPE
  5
5D
330
5
100
AcDbSymbolTableRecord
100
AcDbLinetypeTableRecord
  2
DOT2
 70
     0
  3
Dot (.5x) .....................................
 72
    65
 73
     2
 40
3.174999999999998
 49
0.0
 74
     0
 49
-3.174999999999998
 74
     0
  0
LTYPE
  5
5E
330
5
100
AcDbSymbolTableRecord
100
AcDbLinetypeTableRecord
  2
DOTX2
 70
     0
  3
Dot (2x) .  .  .  .  .  .  .  .  .  .  .  .  . 
 72
    65
 73
     2
 40
12.7
 49
0.0
 74
     0
 49
-12.7
 74
     0
  0
LTYPE
  5
5F
330
5
100
AcDbSymbolTableRecord
100
AcDbLinetypeTableRecord
  2
HIDDEN
 70
     0
  3
Hidden __ __ __ __ __ __ __ __ __ __ __ __ __ _
 72
    65
 73
     2
 40
9.524999999999996
 49
6.349999999999998
 74
     0
 49
-3.174999999999998
 74
     0
  0
LTYPE
  5
60
330
5
100
AcDbSymbolTableRecord
100
AcDbLinetypeTableRecord
  2
HIDDEN2
 70
     0
  3
Hidden (.5x) _ _ _ _ _ _ _ _ _ _ _ _ _ _ _ _ _
 72
    65
 73
     2
 40
4.762499999999998
 49
3.174999999999998
 74
     0
 49
-1.587499999999999
 74
     0
  0
LTYPE
  5
61
330
5
100
AcDbSymbolTableRecord
100
AcDbLinetypeTableRecord
  2
HIDDENX2
 70
     0
  3
Hidden (2x) ____ ____ ____ ____ ____ ____ ____
 72
    65
 73
     2
 40
19.05
 49
12.7
 74
     0
 49
-6.349999999999998
 74
     0
  0
LTYPE
  5
62
330
5
100
AcDbSymbolTableRecord
100
AcDbLinetypeTableRecord
  2
PHANTOM
 70
     0
  3
Phantom ______  __  __  ______  __  __  ______
 72
    65
 73
     6
 40
63.5
 49
31.75
 74
     0
 49
-6.349999999999998
 74
     0
 49
6.349999999999998
 74
     0
 49
-6.349999999999998
 74
     0
 49
6.349999999999998
 74
     0
 49
-6.349999999999998
 74
     0
  0
LTYPE
  5
63
330
5
100
AcDbSymbolTableRecord
100
AcDbLinetypeTableRecord
  2
PHANTOM2
 70
     0
  3
Phantom (.5x) ___ _ _ ___ _ _ ___ _ _ ___ _ _
 72
    65
 73
     6
 40
31.75
 49
15.875
 74
     0
 49
-3.174999999999998
 74
     0
 49
3.174999999999998
 74
     0
 49
-3.174999999999998
 74
     0
 49
3.174999999999998
 74
     0
 49
-3.174999999999998
 74
     0
  0
LTYPE
  5
64
330
5
100
AcDbSymbolTableRecord
100
AcDbLinetypeTableRecord
  2
PHANTOMX2
 70
     0
  3
Phantom (2x) ____________    ____    ____   _
 72
    65
 73
     6
 40
127.0
 49
63.5
 74
     0
 49
-12.7
 74
     0
 49
12.7
 74
     0
 49
-12.7
 74
     0
 49
12.7
 74
     0
 49
-12.7
 74
     0
  0
LTYPE
  5
65
330
5
100
AcDbSymbolTableRecord
100
AcDbLinetypeTableRecord
  2
ACAD_ISO02W100
 70
     0
  3
ISO dash __ __ __ __ __ __ __ __ __ __ __ __ __
 72
    65
 73
     2
 40
15.0
 49
12.0
 74
     0
 49
-3.0
 74
     0
  0
LTYPE
  5
66
330
5
100
AcDbSymbolTableRecord
100
AcDbLinetypeTableRecord
  2
ACAD_ISO03W100
 70
     0
  3
ISO dash space __    __    __    __    __    __
 72
    65
 73
     2
 40
30.0
 49
12.0
 74
     0
 49
-18.0
 74
     0
  0
LTYPE
  5
67
330
5
100
AcDbSymbolTableRecord
100
AcDbLinetypeTableRecord
  2
ACAD_ISO04W100
 70
     0
  3
ISO long-dash dot ____ . ____ . ____ . ____ . _
 72
    65
 73
     4
 40
30.0
 49
24.0
 74
     0
 49
-3.0
 74
     0
 49
0.0
 74
     0
 49
-3.0
 74
     0
  0
LTYPE
  5
68
330
5
100
AcDbSymbolTableRecord
100
AcDbLinetypeTableRecord
  2
ACAD_ISO05W100
 70
     0
  3
ISO long-dash double-dot ____ .. ____ .. ____ .
 72
    65
 73
     6
 40
33.0
 49
24.0
 74
     0
 49
-3.0
 74
     0
 49
0.0
 74
     0
 49
-3.0
 74
     0
 49
0.0
 74
     0
 49
-3.0
 74
     0
  0
LTYPE
  5
69
330
5
100
AcDbSymbolTableRecord
100
AcDbLinetypeTableRecord
  2
ACAD_ISO06W100
 70
     0
  3
ISO long-dash triple-dot ____ ... ____ ... ____
 72
    65
 73
     8
 40
36.0
 49
24.0
 74
     0
 49
-3.0
 74
     0
 49
0.0
 74
     0
 49
-3.0
 74
     0
 49
0.0
 74
     0
 49
-3.0
 74
     0
 49
0.0
 74
     0
 49
-3.0
 74
     0
  0
LTYPE
  5
6A
330
5
100
AcDbSymbolTableRecord
100
AcDbLinetypeTableRecord
  2
ACAD_ISO07W100
 70
     0
  3
ISO dot . . . . . . . . . . . . . . . . . . . .
 72
    65
 73
     2
 40
3.0
 49
0.0
 74
     0
 49
-3.0
 74
     0
  0
LTYPE
  5
6B
330
5
100
AcDbSymbolTableRecord
100
AcDbLinetypeTableRecord
  2
ACAD_ISO08W100
 70
     0
  3
ISO long-dash short-dash ____ __ ____ __ ____ _
 72
    65
 73
     4
 40
36.0
 49
24.0
 74
     0
 49
-3.0
 74
     0
 49
6.0
 74
     0
 49
-3.0
 74
     0
  0
LTYPE
  5
6C
330
5
100
AcDbSymbolTableRecord
100
AcDbLinetypeTableRecord
  2
ACAD_ISO09W100
 70
     0
  3
ISO long-dash double-short-dash ____ __ __ ____
 72
    65
 73
     6
 40
45.0
 49
24.0
 74
     0
 49
-3.0
 74
     0
 49
6.0
 74
     0
 49
-3.0
 74
     0
 49
6.0
 74
     0
 49
-3.0
 74
     0
  0
LTYPE
  5
6D
330
5
100
AcDbSymbolTableRecord
100
AcDbLinetypeTableRecord
  2
ACAD_ISO10W100
 70
     0
  3
ISO dash dot __ . __ . __ . __ . __ . __ . __ .
 72
    65
 73
     4
 40
18.0
 49
12.0
 74
     0
 49
-3.0
 74
     0
 49
0.0
 74
     0
 49
-3.0
 74
     0
  0
LTYPE
  5
6E
330
5
100
AcDbSymbolTableRecord
100
AcDbLinetypeTableRecord
  2
ACAD_ISO11W100
 70
     0
  3
ISO double-dash dot __ __ . __ __ . __ __ . __ 
 72
    65
 73
     6
 40
33.0
 49
12.0
 74
     0
 49
-3.0
 74
     0
 49
12.0
 74
     0
 49
-3.0
 74
     0
 49
0.0
 74
     0
 49
-3.0
 74
     0
  0
LTYPE
  5
6F
330
5
100
AcDbSymbolTableRecord
100
AcDbLinetypeTableRecord
  2
ACAD_ISO12W100
 70
     0
  3
ISO dash double-dot __ . . __ . . __ . . __ . .
 72
    65
 73
     6
 40
21.0
 49
12.0
 74
     0
 49
-3.0
 74
     0
 49
0.0
 74
     0
 49
-3.0
 74
     0
 49
0.0
 74
     0
 49
-3.0
 74
     0
  0
LTYPE
  5
70
330
5
100
AcDbSymbolTableRecord
100
AcDbLinetypeTableRecord
  2
ACAD_ISO13W100
 70
     0
  3
ISO double-dash double-dot __ __ . . __ __ . . 
 72
    65
 73
     8
 40
36.0
 49
12.0
 74
     0
 49
-3.0
 74
     0
 49
12.0
 74
     0
 49
-3.0
 74
     0
 49
0.0
 74
     0
 49
-3.0
 74
     0
 49
0.0
 74
     0
 49
-3.0
 74
     0
  0
LTYPE
  5
71
330
5
100
AcDbSymbolTableRecord
100
AcDbLinetypeTableRecord
  2
ACAD_ISO14W100
 70
     0
  3
ISO dash triple-dot __ . . . __ . . . __ . . . 
 72
    65
 73
     8
 40
24.0
 49
12.0
 74
     0
 49
-3.0
 74
     0
 49
0.0
 74
     0
 49
-3.0
 74
     0
 49
0.0
 74
     0
 49
-3.0
 74
     0
 49
0.0
 74
     0
 49
-3.0
 74
     0
  0
LTYPE
  5
72
330
5
100
AcDbSymbolTableRecord
100
AcDbLinetypeTableRecord
  2
ACAD_ISO15W100
 70
     0
  3
ISO double-dash triple-dot __ __ . . . __ __ . 
 72
    65
 73
    10
 40
39.0
 49
12.0
 74
     0
 49
-3.0
 74
     0
 49
12.0
 74
     0
 49
-3.0
 74
     0
 49
0.0
 74
     0
 49
-3.0
 74
     0
 49
0.0
 74
     0
 49
-3.0
 74
     0
 49
0.0
 74
     0
 49
-3.0
 74
     0
  0
LTYPE
  5
75
330
5
100
AcDbSymbolTableRecord
100
AcDbLinetypeTableRecord
  2
FENCELINE1
 70
     0
  3
Fenceline circle ----0-----0----0-----0----0---
 72
    65
 73
     4
 40
36.83
 49
6.349999999999998
 74
     0
 49
-2.54
 74
     4
 75
   133
340
74
 46
2.54
 50
0.0
 44
-2.54
 45
0.0
 49
-2.54
 74
     0
 49
25.4
 74
     0
  0
LTYPE
  5
76
330
5
100
AcDbSymbolTableRecord
100
AcDbLinetypeTableRecord
  2
FENCELINE2
 70
     0
  3
Fenceline square ----[]-----[]----[]-----[]----
 72
    65
 73
     4
 40
36.83
 49
6.349999999999998
 74
     0
 49
-2.54
 74
     4
 75
   132
340
74
 46
2.54
 50
0.0
 44
-2.54
 45
0.0
 49
-2.54
 74
     0
 49
25.4
 74
     0
  0
LTYPE
  5
77
330
5
100
AcDbSymbolTableRecord
100
AcDbLinetypeTableRecord
  2
TRACKS
 70
     0
  3
Tracks -|-|-|-|-|-|-|-|-|-|-|-|-|-|-|-|-|-|-|-|
 72
    65
 73
     2
 40
7.62
 49
3.81
 74
     4
 75
   130
340
74
 46
6.349999999999998
 50
0.0
 44
0.0
 45
0.0
 49
3.81
 74
     0
  0
LTYPE
  5
78
330
5
100
AcDbSymbolTableRecord
100
AcDbLinetypeTableRecord
  2
BATTING
 70
     0
  3
Batting SSSSSSSSSSSSSSSSSSSSSSSSSSSSSSSSSSSSSSS
 72
    65
 73
     4
 40
10.16254
 49
0.00254
 74
     0
 49
-2.54
 74
     4
 75
   134
340
74
 46
2.54
 50
0.0
 44
-2.54
 45
0.0
 49
-5.08
 74
     4
 75
   134
340
74
 46
2.54
 50
180.0
 44
2.54
 45
0.0
 49
-2.54
 74
     0
  0
LTYPE
  5
79
330
5
100
AcDbSymbolTableRecord
100
AcDbLinetypeTableRecord
  2
HOT_WATER_SUPPLY
 70
     0
  3
Hot water supply ---- HW ---- HW ---- HW ----
 72
    65
 73
     3
 40
22.86
 49
12.7
 74
     0
 49
-5.08
 74
     2
 75
     0
340
26
 46
2.54
 50
0.0
 44
-2.54
 45
-1.27
  9
HW
 49
-5.08
 74
     0
  0
LTYPE
  5
7A
330
5
100
AcDbSymbolTableRecord
100
AcDbLinetypeTableRecord
  2
GAS_LINE
 70
     0
  3
Gas line ----GAS----GAS----GAS----GAS----GAS---
 72
    65
 73
     3
 40
24.13
 49
12.7
 74
     0
 49
-5.08
 74
     2
 75
     0
340
26
 46
2.54
 50
0.0
 44
-2.54
 45
-1.27
  9
GAS
 49
-6.349999999999998
 74
     0
  0
LTYPE
  5
7B
330
5
100
AcDbSymbolTableRecord
100
AcDbLinetypeTableRecord
  2
ZIGZAG
 70
     0
  3
Zig zag /\/\/\/\/\/\/\/\/\/\/\/\/\/\/\/\/\/\/\/
 72
    65
 73
     4
 40
20.32254
 49
0.00254
 74
     0
 49
-5.08
 74
     4
 75
   131
340
74
 46
5.08
 50
0.0
 44
-5.08
 45
0.0
 49
-10.16
 74
     4
 75
   131
340
74
 46
5.08
 50
180.0
 44
5.08
 45
0.0
 49
-5.08
 74
     0
  0
ENDTAB
  0
TABLE
  2
LAYER
  5
2
330
0
100
AcDbSymbolTable
 70
     5
  0
LAYER
  5
25
330
2
100
AcDbSymbolTableRecord
100
AcDbLayerTableRecord
  2
0
 70
     0
 62
     7
  6
Continuous
370
    -3
390
F
  0
LAYER
  5
88
330
2
100
AcDbSymbolTableRecord
100
AcDbLayerTableRecord
  2
Rahmen (ISO)
 70
     0
 62
     7
  6
Continuous
370
    70
390
F
  0
LAYER
  5
8C
330
2
100
AcDbSymbolTableRecord
100
AcDbLayerTableRecord
  2
Sichtbar (ISO)
 70
     0
 62
     7
  6
Continuous
370
    50
390
F
  0
LAYER
  5
8F
330
2
100
AcDbSymbolTableRecord
100
AcDbLayerTableRecord
  2
Symbol (ISO)
 70
     0
 62
     7
  6
Continuous
370
    25
390
F
  0
LAYER
  5
90
330
2
100
AcDbSymbolTableRecord
100
AcDbLayerTableRecord
  2
Titel (ISO)
 70
     0
 62
     7
  6
Continuous
370
    50
390
F
  0
ENDTAB
  0
TABLE
  2
STYLE
  5
3
330
0
100
AcDbSymbolTable
 70
    12
  0
STYLE
  5
26
330
3
100
AcDbSymbolTableRecord
100
AcDbTextStyleTableRecord
  2
Standard
 70
     0
 40
0.0
 41
1.0
 50
0.0
 71
     0
 42
0.2
  3
isocpeur.ttf
  4

1001
ACAD
1000
ISOCPEUR
1071
      256
  0
STYLE
  5
74
330
3
100
AcDbSymbolTableRecord
100
AcDbTextStyleTableRecord
  2

 70
     1
 40
0.0
 41
1.0
 50
0.0
 71
     0
 42
0.2
  3
ltypeshp.shx
  4

  0
STYLE
  5
94
330
3
100
AcDbSymbolTableRecord
100
AcDbTextStyleTableRecord
  2
Bezeichnungstext (ANSI)
 70
     0
 40
0.0
 41
1.0
 50
0.0
 71
     0
 42
0.2
  3
TAHOMA.TTF
  4

1001
ACAD
1000
Tahoma
1071
      256
  0
STYLE
  5
95
330
3
100
AcDbSymbolTableRecord
100
AcDbTextStyleTableRecord
  2
Bezeichnungstext (DIN)
 70
     0
 40
0.0
 41
1.0
 50
0.0
 71
     0
 42
0.2
  3
isocpeur.ttf
  4

1001
ACAD
1000
ISOCPEUR
1071
      256
  0
STYLE
  5
96
330
3
100
AcDbSymbolTableRecord
100
AcDbTextStyleTableRecord
  2
Bezeichnungstext (ISO)
 70
     0
 40
0.0
 41
1.0
 50
0.0
 71
     0
 42
0.2
  3
TAHOMA.TTF
  4

1001
ACAD
1000
Tahoma
1071
      256
  0
STYLE
  5
97
330
3
100
AcDbSymbolTableRecord
100
AcDbTextStyleTableRecord
  2
Bezeichnungstext (JIS)
 70
     0
 40
0.0
 41
1.0
 50
0.0
 71
     0
 42
0.2
  3
TAHOMA.TTF
  4

1001
ACAD
1000
Tahoma
1071
      256
  0
STYLE
  5
98
330
3
100
AcDbSymbolTableRecord
100
AcDbTextStyleTableRecord
  2
Notiztext (ANSI)
 70
     0
 40
0.0
 41
1.0
 50
0.0
 71
     0
 42
0.2
  3
TAHOMA.TTF
  4

1001
ACAD
1000
Tahoma
1071
      256
  0
STYLE
  5
99
330
3
100
AcDbSymbolTableRecord
100
AcDbTextStyleTableRecord
  2
Notiztext (DIN)
 70
     0
 40
0.0
 41
1.0
 50
0.0
 71
     0
 42
0.2
  3
isocpeur.ttf
  4

1001
ACAD
1000
ISOCPEUR
1071
      256
  0
STYLE
  5
9A
330
3
100
AcDbSymbolTableRecord
100
AcDbTextStyleTableRecord
  2
Notiztext (ISO)
 70
     0
 40
0.0
 41
1.0
 50
0.0
 71
     0
 42
0.2
  3
TAHOMA.TTF
  4

1001
ACAD
1000
Tahoma
1071
      256
  0
STYLE
  5
9B
330
3
100
AcDbSymbolTableRecord
100
AcDbTextStyleTableRecord
  2
Notiztext (JIS)
 70
     0
 40
0.0
 41
1.0
 50
0.0
 71
     0
 42
0.2
  3
TAHOMA.TTF
  4

1001
ACAD
1000
Tahoma
1071
      256
  0
STYLE
  5
13F
330
3
100
AcDbSymbolTableRecord
100
AcDbTextStyleTableRecord
  2
Textstil7
 70
     0
 40
0.0
 41
1.0
 50
0.0
 71
     0
 42
0.2
  3
isocpeur.ttf
  4

1001
ACAD
1000
ISOCPEUR
1071
      256
  0
STYLE
  5
408
330
3
100
AcDbSymbolTableRecord
100
AcDbTextStyleTableRecord
  2
Textstil13
 70
     0
 40
0.0
 41
1.0
 50
0.0
 71
     0
 42
0.2
  3
isocpeur.ttf
  4

1001
ACAD
1000
ISOCPEUR
1071
      256
  0
ENDTAB
  0
TABLE
  2
VIEW
  5
6
330
0
100
AcDbSymbolTable
 70
     0
  0
ENDTAB
  0
TABLE
  2
UCS
  5
7
330
0
100
AcDbSymbolTable
 70
     0
  0
ENDTAB
  0
TABLE
  2
APPID
  5
9
330
0
100
AcDbSymbolTable
 70
     1
  0
APPID
  5
27
330
9
100
AcDbSymbolTableRecord
100
AcDbRegAppTableRecord
  2
ACAD
 70
     0
  0
ENDTAB
  0
TABLE
  2
DIMSTYLE
  5
A
330
0
100
AcDbSymbolTable
 70
    11
100
AcDbDimStyleTable
 71
     0
  0
DIMSTYLE
105
3F
330
A
100
AcDbSymbolTableRecord
100
AcDbDimStyleTableRecord
  2
Standard
 70
     0
340
26
  0
DIMSTYLE
105
AA
330
A
100
AcDbSymbolTableRecord
100
AcDbDimStyleTableRecord
  2
Sonstiges Objekt (DIN)
 70
     0
 41
5.0
 42
0.0
 43
6.0
 44
3.174999999999998
 45
0.00000001
 46
10.0
 77
     1
 78
     8
 79
     2
140
5.25
143
0.03937
146
0.6666666666666666
147
0.8
171
     3
172
     1
176
   256
177
   256
178
   256
271
     2
272
     2
274
     3
278
    44
284
     8
286
     8
340
95
341
9C
371
    -1
372
    -1
  0
DIMSTYLE
105
AB
330
A
100
AcDbSymbolTableRecord
100
AcDbDimStyleTableRecord
  2
Sonstiges Objekt (DIN)$7
 70
     0
 41
5.0
 42
0.0
 43
6.0
 44
3.174999999999998
 45
0.00000001
 46
10.0
 77
     1
 78
     8
 79
     2
140
5.25
143
0.03937
146
0.6666666666666666
147
0.8
171
     3
172
     1
176
   256
177
   256
178
   256
271
     2
272
     2
274
     3
278
    44
284
     8
286
     8
340
95
341
9C
371
    25
372
    -1
  0
DIMSTYLE
105
AC
330
A
100
AcDbSymbolTableRecord
100
AcDbDimStyleTableRecord
  2
Standard - Methode 2a (DIN)
 70
     0
 41
2.5
 42
0.8
 43
6.0
 44
3.174999999999998
 45
0.00000001
 46
10.0
 77
     1
 78
     8
 79
     2
140
3.5
143
0.03937
147
0.8
170
     1
171
     3
172
     1
176
   256
177
   256
178
   256
179
     2
271
     2
272
     2
274
     3
278
    44
284
     8
286
     8
340
99
371
    -1
372
    -1
  0
DIMSTYLE
105
AD
330
A
100
AcDbSymbolTableRecord
100
AcDbDimStyleTableRecord
  2
Standard - Methode 2a (DIN)$7
 70
     0
 41
2.5
 42
0.8
 43
6.0
 44
3.174999999999998
 45
0.00000001
 46
10.0
 77
     1
 78
     8
 79
     2
140
3.5
143
0.03937
147
0.8
170
     1
171
     3
172
     1
176
   256
177
   256
178
   256
179
     2
271
     2
272
     2
274
     3
278
    44
284
     8
286
     8
340
99
371
    -1
372
    -1
  0
DIMSTYLE
105
AE
330
A
100
AcDbSymbolTableRecord
100
AcDbDimStyleTableRecord
  2
Standard - Methode 2b (DIN)
 70
     0
 41
2.5
 42
0.0
 43
6.0
 44
3.174999999999998
 45
0.00000001
 46
10.0
 77
     1
 78
     8
 79
     2
140
3.5
143
0.03937
147
0.8
171
     3
172
     1
176
   256
177
   256
178
   256
271
     2
272
     2
274
     3
278
    44
284
     8
286
     8
340
99
371
    -1
372
    -1
  0
DIMSTYLE
105
AF
330
A
100
AcDbSymbolTableRecord
100
AcDbDimStyleTableRecord
  2
Standard - Methode 2b (DIN)$7
 70
     0
 41
2.5
 42
0.0
 43
6.0
 44
3.174999999999998
 45
0.00000001
 46
10.0
 77
     1
 78
     8
 79
     2
140
3.5
143
0.03937
147
0.8
171
     3
172
     1
176
   256
177
   256
178
   256
271
     2
272
     2
274
     3
278
    44
284
     8
286
     8
340
99
371
    -1
372
    -1
  0
DIMSTYLE
105
B0
330
A
100
AcDbSymbolTableRecord
100
AcDbDimStyleTableRecord
  2
Standard (DIN)
 70
     0
 41
2.5
 42
0.8
 43
6.0
 44
3.174999999999998
 45
0.00000001
 46
10.0
 73
     0
 74
     0
 77
     1
140
3.5
143
0.03937
147
0.8
171
     3
172
     1
176
   256
177
   256
178
   256
271
     2
272
     2
274
     3
278
    44
340
99
371
    -1
372
    -1
  0
DIMSTYLE
105
B1
330
A
100
AcDbSymbolTableRecord
100
AcDbDimStyleTableRecord
  2
Standard (DIN)$7
 70
     0
 41
2.5
 42
0.8
 43
6.0
 44
3.174999999999998
 45
0.00000001
 46
10.0
 73
     0
 74
     0
 77
     1
140
3.5
143
0.03937
147
0.8
171
     3
172
     1
176
   256
177
   256
178
   256
271
     2
272
     2
274
     3
278
    44
340
99
371
    -1
372
    -1
  0
DIMSTYLE
105
B2
330
A
100
AcDbSymbolTableRecord
100
AcDbDimStyleTableRecord
  2
Alternativ (ISO)
 70
     0
 41
2.5
340
26
342
B3
  0
DIMSTYLE
105
C4
330
A
100
AcDbSymbolTableRecord
100
AcDbDimStyleTableRecord
  2
Bezug (ISO)
 70
     0
 41
2.5
340
26
342
B3
  0
ENDTAB
  0
TABLE
  2
BLOCK_RECORD
  5
1
330
0
100
AcDbSymbolTable
 70
     6
  0
BLOCK_RECORD
  5
37
330
1
100
AcDbSymbolTableRecord
100
AcDbBlockTableRecord
  2
*Model_Space
340
3A
  0
BLOCK_RECORD
  5
33
330
1
100
AcDbSymbolTableRecord
100
AcDbBlockTableRecord
  2
*Paper_Space
340
36
  0
BLOCK_RECORD
  5
3B
330
1
100
AcDbSymbolTableRecord
100
AcDbBlockTableRecord
  2
*Paper_Space0
340
3E
  0
BLOCK_RECORD
  5
9C
330
1
100
AcDbSymbolTableRecord
100
AcDbBlockTableRecord
  2
Filled-1
340
0
  0
BLOCK_RECORD
  5
B3
330
1
100
AcDbSymbolTableRecord
100
AcDbBlockTableRecord
  2
_Closed
340
0
  0
BLOCK_RECORD
  5
BA
330
1
100
AcDbSymbolTableRecord
100
AcDbBlockTableRecord
  2
DatumFilled45
340
0
  0
BLOCK_RECORD
  5
C5
330
1
100
AcDbSymbolTableRecord
100
AcDbBlockTableRecord
  2
Ränder Default Border
340
0
102
{BLKREFS
331
1E6
102
}
  0
BLOCK_RECORD
  5
1E7
330
1
100
AcDbSymbolTableRecord
100
AcDbBlockTableRecord
  2
Schriftfelder großes schriftfeld
340
0
102
{BLKREFS
331
229
102
}
  0
ENDTAB
  0
ENDSEC
  0
SECTION
  2
BLOCKS
  0
BLOCK
  5
38
330
37
100
AcDbEntity
  8
0
100
AcDbBlockBegin
  2
*Model_Space
 70
     0
 10
0.0
 20
0.0
 30
0.0
  3
*Model_Space
  1

  0
ENDBLK
  5
39
330
37
100
AcDbEntity
  8
0
100
AcDbBlockEnd
  0
BLOCK
  5
34
330
33
100
AcDbEntity
 67
     1
  8
0
100
AcDbBlockBegin
  2
*Paper_Space
 70
     0
 10
0.0
 20
0.0
 30
0.0
  3
*Paper_Space
  1

  0
ENDBLK
  5
35
330
33
100
AcDbEntity
 67
     1
  8
0
100
AcDbBlockEnd
  0
BLOCK
  5
3C
330
3B
100
AcDbEntity
 67
     1
  8
0
100
AcDbBlockBegin
  2
*Paper_Space0
 70
     0
 10
0.0
 20
0.0
 30
0.0
  3
*Paper_Space0
  1

  0
ENDBLK
  5
3D
330
3B
100
AcDbEntity
 67
     1
  8
0
100
AcDbBlockEnd
  0
BLOCK
  5
9D
330
9C
100
AcDbEntity
  8
0
100
AcDbBlockBegin
  2
Filled-1
 70
     0
 10
0.0
 20
0.0
 30
0.0
  3
Filled-1
  1

  0
LINE
  5
9F
330
9C
100
AcDbEntity
  8
0
 62
     0
100
AcDbLine
 10
-1.0
 20
0.0
 30
0.0
 11
0.0
 21
0.0
 31
0.0
  0
POLYLINE
  5
A0
330
9C
100
AcDbEntity
  8
0
 62
     0
100
AcDb2dPolyline
 66
     1
 10
0.0
 20
0.0
 30
0.0
 70
   128
  0
VERTEX
  5
A1
330
A0
100
AcDbEntity
  8
0
 62
     0
100
AcDbVertex
100
AcDb2dVertex
 10
-1.0
 20
-0.1
 30
0.0
  0
VERTEX
  5
A2
330
A0
100
AcDbEntity
  8
0
 62
     0
100
AcDbVertex
100
AcDb2dVertex
 10
0.0
 20
0.0
 30
0.0
  0
VERTEX
  5
A4
330
A0
100
AcDbEntity
  8
0
 62
     0
100
AcDbVertex
100
AcDb2dVertex
 10
-1.0
 20
0.1
 30
0.0
  0
VERTEX
  5
A5
330
A0
100
AcDbEntity
  8
0
 62
     0
100
AcDbVertex
100
AcDb2dVertex
 10
-1.0
 20
-0.1
 30
0.0
  0
SEQEND
  5
A3
330
A0
100
AcDbEntity
  8
0
 62
     0
  0
SOLID
  5
A6
330
9C
100
AcDbEntity
  8
0
 62
     0
100
AcDbTrace
 10
-1.0
 20
-0.1
 30
0.0
 11
0.0
 21
0.0
 31
0.0
 12
-1.0
 22
0.1
 32
0.0
 13
-1.0
 23
-0.1
 33
0.0
  0
LINE
  5
A7
330
9C
100
AcDbEntity
  8
0
 62
     0
100
AcDbLine
 10
-1.0
 20
-0.1
 30
0.0
 11
0.0
 21
0.0
 31
0.0
  0
LINE
  5
A8
330
9C
100
AcDbEntity
  8
0
 62
     0
100
AcDbLine
 10
0.0
 20
0.0
 30
0.0
 11
-1.0
 21
0.1
 31
0.0
  0
LINE
  5
A9
330
9C
100
AcDbEntity
  8
0
 62
     0
100
AcDbLine
 10
-1.0
 20
0.1
 30
0.0
 11
-1.0
 21
-0.1
 31
0.0
  0
ENDBLK
  5
9E
330
9C
100
AcDbEntity
  8
0
100
AcDbBlockEnd
  0
BLOCK
  5
B8
330
B3
100
AcDbEntity
  8
0
100
AcDbBlockBegin
  2
_Closed
 70
     0
 10
0.0
 20
0.0
 30
0.0
  3
_Closed
  1

  0
LINE
  5
B4
330
B3
100
AcDbEntity
  8
0
  6
ByBlock
 62
     0
370
    -2
100
AcDbLine
 10
-1.0
 20
0.1666666666666666
 30
0.0
 11
0.0
 21
0.0
 31
0.0
  0
LINE
  5
B5
330
B3
100
AcDbEntity
  8
0
  6
ByBlock
 62
     0
370
    -2
100
AcDbLine
 10
0.0
 20
0.0
 30
0.0
 11
-1.0
 21
-0.1666666666666666
 31
0.0
  0
LINE
  5
B6
330
B3
100
AcDbEntity
  8
0
  6
ByBlock
 62
     0
370
    -2
100
AcDbLine
 10
-1.0
 20
0.1666666666666666
 30
0.0
 11
-1.0
 21
-0.1666666666666666
 31
0.0
  0
LINE
  5
B7
330
B3
100
AcDbEntity
  8
0
  6
ByBlock
 62
     0
370
    -2
100
AcDbLine
 10
0.0
 20
0.0
 30
0.0
 11
-1.0
 21
0.0
 31
0.0
  0
ENDBLK
  5
B9
330
B3
100
AcDbEntity
  8
0
100
AcDbBlockEnd
  0
BLOCK
  5
BB
330
BA
100
AcDbEntity
  8
0
100
AcDbBlockBegin
  2
DatumFilled45
 70
     0
 10
0.0
 20
0.0
 30
0.0
  3
DatumFilled45
  1

  0
POLYLINE
  5
BD
330
BA
100
AcDbEntity
  8
0
 62
     0
100
AcDb2dPolyline
 66
     1
 10
0.0
 20
0.0
 30
0.0
 70
   128
  0
VERTEX
  5
BE
330
BD
100
AcDbEntity
  8
0
 62
     0
100
AcDbVertex
100
AcDb2dVertex
 10
0.0
 20
1.0
 30
0.0
  0
VERTEX
  5
BF
330
BD
100
AcDbEntity
  8
0
 62
     0
100
AcDbVertex
100
AcDb2dVertex
 10
0.0
 20
-1.0
 30
0.0
  0
VERTEX
  5
C1
330
BD
100
AcDbEntity
  8
0
 62
     0
100
AcDbVertex
100
AcDb2dVertex
 10
-1.0
 20
0.0
 30
0.0
  0
VERTEX
  5
C2
330
BD
100
AcDbEntity
  8
0
 62
     0
100
AcDbVertex
100
AcDb2dVertex
 10
0.0
 20
1.0
 30
0.0
  0
SEQEND
  5
C0
330
BD
100
AcDbEntity
  8
0
 62
     0
  0
SOLID
  5
C3
330
BA
100
AcDbEntity
  8
0
 62
     0
100
AcDbTrace
 10
0.0
 20
1.0
 30
0.0
 11
0.0
 21
-1.0
 31
0.0
 12
-1.0
 22
0.0
 32
0.0
 13
0.0
 23
1.0
 33
0.0
  0
ENDBLK
  5
BC
330
BA
100
AcDbEntity
  8
0
100
AcDbBlockEnd
  0
BLOCK
  5
C6
330
C5
100
AcDbEntity
  8
0
100
AcDbBlockBegin
  2
Ränder Default Border
 70
     0
 10
0.0
 20
0.0
 30
0.0
  3
Ränder Default Border
  1

  0
POLYLINE
  5
C8
330
C5
100
AcDbEntity
  8
Rahmen (ISO)
100
AcDb2dPolyline
 66
     1
 10
0.0
 20
0.0
 30
0.0
 70
   128
  0
VERTEX
  5
C9
330
C8
100
AcDbEntity
  8
Rahmen (ISO)
100
AcDbVertex
100
AcDb2dVertex
 10
20.0
 20
20.0
 30
0.0
  0
VERTEX
  5
CA
330
C8
100
AcDbEntity
  8
Rahmen (ISO)
100
AcDbVertex
100
AcDb2dVertex
 10
20.0
 20
1480.0
 30
0.0
  0
VERTEX
  5
CC
330
C8
100
AcDbEntity
  8
Rahmen (ISO)
100
AcDbVertex
100
AcDb2dVertex
 10
3280.0
 20
1480.0
 30
0.0
  0
VERTEX
  5
CD
330
C8
100
AcDbEntity
  8
Rahmen (ISO)
100
AcDbVertex
100
AcDb2dVertex
 10
3280.0
 20
20.0
 30
0.0
  0
VERTEX
  5
CE
330
C8
100
AcDbEntity
  8
Rahmen (ISO)
100
AcDbVertex
100
AcDb2dVertex
 10
20.0
 20
20.0
 30
0.0
  0
SEQEND
  5
CB
330
C8
100
AcDbEntity
  8
Rahmen (ISO)
  0
POLYLINE
  5
CF
330
C5
100
AcDbEntity
  8
Rahmen (ISO)
100
AcDb2dPolyline
 66
     1
 10
0.0
 20
0.0
 30
0.0
 70
   128
  0
VERTEX
  5
D0
330
CF
100
AcDbEntity
  8
Rahmen (ISO)
100
AcDbVertex
100
AcDb2dVertex
 10
1650.0
 20
0.0
 30
0.0
  0
VERTEX
  5
D1
330
CF
100
AcDbEntity
  8
Rahmen (ISO)
100
AcDbVertex
100
AcDb2dVertex
 10
1650.0
 20
20.0
 30
0.0
  0
VERTEX
  5
D3
330
CF
100
AcDbEntity
  8
Rahmen (ISO)
100
AcDbVertex
100
AcDb2dVertex
 10
1644.226531982422
 20
10.0
 30
0.0
  0
VERTEX
  5
D4
330
CF
100
AcDbEntity
  8
Rahmen (ISO)
100
AcDbVertex
100
AcDb2dVertex
 10
1655.773468017578
 20
10.0
 30
0.0
  0
VERTEX
  5
D5
330
CF
100
AcDbEntity
  8
Rahmen (ISO)
100
AcDbVertex
100
AcDb2dVertex
 10
1650.0
 20
20.0
 30
0.0
  0
SEQEND
  5
D2
330
CF
100
AcDbEntity
  8
Rahmen (ISO)
  0
POLYLINE
  5
D6
330
C5
100
AcDbEntity
  8
Rahmen (ISO)
100
AcDb2dPolyline
 66
     1
 10
0.0
 20
0.0
 30
0.0
 70
   128
  0
VERTEX
  5
D7
330
D6
100
AcDbEntity
  8
Rahmen (ISO)
100
AcDbVertex
100
AcDb2dVertex
 10
1650.0
 20
1500.0
 30
0.0
  0
VERTEX
  5
D8
330
D6
100
AcDbEntity
  8
Rahmen (ISO)
100
AcDbVertex
100
AcDb2dVertex
 10
1650.0
 20
1480.0
 30
0.0
  0
VERTEX
  5
DA
330
D6
100
AcDbEntity
  8
Rahmen (ISO)
100
AcDbVertex
100
AcDb2dVertex
 10
1644.226531982422
 20
1490.0
 30
0.0
  0
VERTEX
  5
DB
330
D6
100
AcDbEntity
  8
Rahmen (ISO)
100
AcDbVertex
100
AcDb2dVertex
 10
1655.773468017578
 20
1490.0
 30
0.0
  0
VERTEX
  5
DC
330
D6
100
AcDbEntity
  8
Rahmen (ISO)
100
AcDbVertex
100
AcDb2dVertex
 10
1650.0
 20
1480.0
 30
0.0
  0
SEQEND
  5
D9
330
D6
100
AcDbEntity
  8
Rahmen (ISO)
  0
POLYLINE
  5
DD
330
C5
100
AcDbEntity
  8
Rahmen (ISO)
100
AcDb2dPolyline
 66
     1
 10
0.0
 20
0.0
 30
0.0
 70
   128
  0
VERTEX
  5
DE
330
DD
100
AcDbEntity
  8
Rahmen (ISO)
100
AcDbVertex
100
AcDb2dVertex
 10
0.0
 20
750.0
 30
0.0
  0
VERTEX
  5
DF
330
DD
100
AcDbEntity
  8
Rahmen (ISO)
100
AcDbVertex
100
AcDb2dVertex
 10
20.0
 20
750.0
 30
0.0
  0
VERTEX
  5
E1
330
DD
100
AcDbEntity
  8
Rahmen (ISO)
100
AcDbVertex
100
AcDb2dVertex
 10
10.0
 20
755.7734680175781
 30
0.0
  0
VERTEX
  5
E2
330
DD
100
AcDbEntity
  8
Rahmen (ISO)
100
AcDbVertex
100
AcDb2dVertex
 10
10.0
 20
744.2265319824217
 30
0.0
  0
VERTEX
  5
E3
330
DD
100
AcDbEntity
  8
Rahmen (ISO)
100
AcDbVertex
100
AcDb2dVertex
 10
20.0
 20
750.0
 30
0.0
  0
SEQEND
  5
E0
330
DD
100
AcDbEntity
  8
Rahmen (ISO)
  0
POLYLINE
  5
E4
330
C5
100
AcDbEntity
  8
Rahmen (ISO)
100
AcDb2dPolyline
 66
     1
 10
0.0
 20
0.0
 30
0.0
 70
   128
  0
VERTEX
  5
E5
330
E4
100
AcDbEntity
  8
Rahmen (ISO)
100
AcDbVertex
100
AcDb2dVertex
 10
3300.0
 20
750.0
 30
0.0
  0
VERTEX
  5
E6
330
E4
100
AcDbEntity
  8
Rahmen (ISO)
100
AcDbVertex
100
AcDb2dVertex
 10
3280.0
 20
750.0
 30
0.0
  0
VERTEX
  5
E8
330
E4
100
AcDbEntity
  8
Rahmen (ISO)
100
AcDbVertex
100
AcDb2dVertex
 10
3290.0
 20
755.7734680175781
 30
0.0
  0
VERTEX
  5
E9
330
E4
100
AcDbEntity
  8
Rahmen (ISO)
100
AcDbVertex
100
AcDb2dVertex
 10
3290.0
 20
744.2265319824217
 30
0.0
  0
VERTEX
  5
EA
330
E4
100
AcDbEntity
  8
Rahmen (ISO)
100
AcDbVertex
100
AcDb2dVertex
 10
3280.0
 20
750.0
 30
0.0
  0
SEQEND
  5
E7
330
E4
100
AcDbEntity
  8
Rahmen (ISO)
  0
LINE
  5
EB
330
C5
100
AcDbEntity
  8
Rahmen (ISO)
100
AcDbLine
 10
75.0
 20
20.0
 30
0.0
 11
75.0
 21
16.10000014305114
 31
0.0
  0
LINE
  5
EC
330
C5
100
AcDbEntity
  8
Rahmen (ISO)
100
AcDbLine
 10
75.0
 20
1480.0
 30
0.0
 11
75.0
 21
1483.899993896484
 31
0.0
  0
LINE
  5
ED
330
C5
100
AcDbEntity
  8
Rahmen (ISO)
100
AcDbLine
 10
150.0
 20
20.0
 30
0.0
 11
150.0
 21
16.10000014305114
 31
0.0
  0
LINE
  5
EE
330
C5
100
AcDbEntity
  8
Rahmen (ISO)
100
AcDbLine
 10
150.0
 20
1480.0
 30
0.0
 11
150.0
 21
1483.899993896484
 31
0.0
  0
LINE
  5
EF
330
C5
100
AcDbEntity
  8
Rahmen (ISO)
100
AcDbLine
 10
225.0
 20
20.0
 30
0.0
 11
225.0
 21
16.10000014305114
 31
0.0
  0
LINE
  5
F0
330
C5
100
AcDbEntity
  8
Rahmen (ISO)
100
AcDbLine
 10
225.0
 20
1480.0
 30
0.0
 11
225.0
 21
1483.899993896484
 31
0.0
  0
LINE
  5
F1
330
C5
100
AcDbEntity
  8
Rahmen (ISO)
100
AcDbLine
 10
300.0
 20
20.0
 30
0.0
 11
300.0
 21
16.10000014305114
 31
0.0
  0
LINE
  5
F2
330
C5
100
AcDbEntity
  8
Rahmen (ISO)
100
AcDbLine
 10
300.0
 20
1480.0
 30
0.0
 11
300.0
 21
1483.899993896484
 31
0.0
  0
LINE
  5
F3
330
C5
100
AcDbEntity
  8
Rahmen (ISO)
100
AcDbLine
 10
375.0
 20
20.0
 30
0.0
 11
375.0
 21
16.10000014305114
 31
0.0
  0
LINE
  5
F4
330
C5
100
AcDbEntity
  8
Rahmen (ISO)
100
AcDbLine
 10
375.0
 20
1480.0
 30
0.0
 11
375.0
 21
1483.899993896484
 31
0.0
  0
LINE
  5
F5
330
C5
100
AcDbEntity
  8
Rahmen (ISO)
100
AcDbLine
 10
450.0
 20
20.0
 30
0.0
 11
450.0
 21
16.10000014305114
 31
0.0
  0
LINE
  5
F6
330
C5
100
AcDbEntity
  8
Rahmen (ISO)
100
AcDbLine
 10
450.0
 20
1480.0
 30
0.0
 11
450.0
 21
1483.899993896484
 31
0.0
  0
LINE
  5
F7
330
C5
100
AcDbEntity
  8
Rahmen (ISO)
100
AcDbLine
 10
525.0
 20
20.0
 30
0.0
 11
525.0
 21
16.10000014305114
 31
0.0
  0
LINE
  5
F8
330
C5
100
AcDbEntity
  8
Rahmen (ISO)
100
AcDbLine
 10
525.0
 20
1480.0
 30
0.0
 11
525.0
 21
1483.899993896484
 31
0.0
  0
LINE
  5
F9
330
C5
100
AcDbEntity
  8
Rahmen (ISO)
100
AcDbLine
 10
600.0
 20
20.0
 30
0.0
 11
600.0
 21
16.10000014305114
 31
0.0
  0
LINE
  5
FA
330
C5
100
AcDbEntity
  8
Rahmen (ISO)
100
AcDbLine
 10
600.0
 20
1480.0
 30
0.0
 11
600.0
 21
1483.899993896484
 31
0.0
  0
LINE
  5
FB
330
C5
100
AcDbEntity
  8
Rahmen (ISO)
100
AcDbLine
 10
675.0
 20
20.0
 30
0.0
 11
675.0
 21
16.10000014305114
 31
0.0
  0
LINE
  5
FC
330
C5
100
AcDbEntity
  8
Rahmen (ISO)
100
AcDbLine
 10
675.0
 20
1480.0
 30
0.0
 11
675.0
 21
1483.899993896484
 31
0.0
  0
LINE
  5
FD
330
C5
100
AcDbEntity
  8
Rahmen (ISO)
100
AcDbLine
 10
750.0
 20
20.0
 30
0.0
 11
750.0
 21
16.10000014305114
 31
0.0
  0
LINE
  5
FE
330
C5
100
AcDbEntity
  8
Rahmen (ISO)
100
AcDbLine
 10
750.0
 20
1480.0
 30
0.0
 11
750.0
 21
1483.899993896484
 31
0.0
  0
LINE
  5
FF
330
C5
100
AcDbEntity
  8
Rahmen (ISO)
100
AcDbLine
 10
825.0
 20
20.0
 30
0.0
 11
825.0
 21
16.10000014305114
 31
0.0
  0
LINE
  5
100
330
C5
100
AcDbEntity
  8
Rahmen (ISO)
100
AcDbLine
 10
825.0
 20
1480.0
 30
0.0
 11
825.0
 21
1483.899993896484
 31
0.0
  0
LINE
  5
101
330
C5
100
AcDbEntity
  8
Rahmen (ISO)
100
AcDbLine
 10
900.0
 20
20.0
 30
0.0
 11
900.0
 21
16.10000014305114
 31
0.0
  0
LINE
  5
102
330
C5
100
AcDbEntity
  8
Rahmen (ISO)
100
AcDbLine
 10
900.0
 20
1480.0
 30
0.0
 11
900.0
 21
1483.899993896484
 31
0.0
  0
LINE
  5
103
330
C5
100
AcDbEntity
  8
Rahmen (ISO)
100
AcDbLine
 10
975.0
 20
20.0
 30
0.0
 11
975.0
 21
16.10000014305114
 31
0.0
  0
LINE
  5
104
330
C5
100
AcDbEntity
  8
Rahmen (ISO)
100
AcDbLine
 10
975.0
 20
1480.0
 30
0.0
 11
975.0
 21
1483.899993896484
 31
0.0
  0
LINE
  5
105
330
C5
100
AcDbEntity
  8
Rahmen (ISO)
100
AcDbLine
 10
1050.0
 20
20.0
 30
0.0
 11
1050.0
 21
16.10000014305114
 31
0.0
  0
LINE
  5
106
330
C5
100
AcDbEntity
  8
Rahmen (ISO)
100
AcDbLine
 10
1050.0
 20
1480.0
 30
0.0
 11
1050.0
 21
1483.899993896484
 31
0.0
  0
LINE
  5
107
330
C5
100
AcDbEntity
  8
Rahmen (ISO)
100
AcDbLine
 10
1125.0
 20
20.0
 30
0.0
 11
1125.0
 21
16.10000014305114
 31
0.0
  0
LINE
  5
108
330
C5
100
AcDbEntity
  8
Rahmen (ISO)
100
AcDbLine
 10
1125.0
 20
1480.0
 30
0.0
 11
1125.0
 21
1483.899993896484
 31
0.0
  0
LINE
  5
109
330
C5
100
AcDbEntity
  8
Rahmen (ISO)
100
AcDbLine
 10
1200.0
 20
20.0
 30
0.0
 11
1200.0
 21
16.10000014305114
 31
0.0
  0
LINE
  5
10A
330
C5
100
AcDbEntity
  8
Rahmen (ISO)
100
AcDbLine
 10
1200.0
 20
1480.0
 30
0.0
 11
1200.0
 21
1483.899993896484
 31
0.0
  0
LINE
  5
10B
330
C5
100
AcDbEntity
  8
Rahmen (ISO)
100
AcDbLine
 10
1275.0
 20
20.0
 30
0.0
 11
1275.0
 21
16.10000014305114
 31
0.0
  0
LINE
  5
10C
330
C5
100
AcDbEntity
  8
Rahmen (ISO)
100
AcDbLine
 10
1275.0
 20
1480.0
 30
0.0
 11
1275.0
 21
1483.899993896484
 31
0.0
  0
LINE
  5
10D
330
C5
100
AcDbEntity
  8
Rahmen (ISO)
100
AcDbLine
 10
1350.0
 20
20.0
 30
0.0
 11
1350.0
 21
16.10000014305114
 31
0.0
  0
LINE
  5
10E
330
C5
100
AcDbEntity
  8
Rahmen (ISO)
100
AcDbLine
 10
1350.0
 20
1480.0
 30
0.0
 11
1350.0
 21
1483.899993896484
 31
0.0
  0
LINE
  5
10F
330
C5
100
AcDbEntity
  8
Rahmen (ISO)
100
AcDbLine
 10
1425.0
 20
20.0
 30
0.0
 11
1425.0
 21
16.10000014305114
 31
0.0
  0
LINE
  5
110
330
C5
100
AcDbEntity
  8
Rahmen (ISO)
100
AcDbLine
 10
1425.0
 20
1480.0
 30
0.0
 11
1425.0
 21
1483.899993896484
 31
0.0
  0
LINE
  5
111
330
C5
100
AcDbEntity
  8
Rahmen (ISO)
100
AcDbLine
 10
1500.0
 20
20.0
 30
0.0
 11
1500.0
 21
16.10000014305114
 31
0.0
  0
LINE
  5
112
330
C5
100
AcDbEntity
  8
Rahmen (ISO)
100
AcDbLine
 10
1500.0
 20
1480.0
 30
0.0
 11
1500.0
 21
1483.899993896484
 31
0.0
  0
LINE
  5
113
330
C5
100
AcDbEntity
  8
Rahmen (ISO)
100
AcDbLine
 10
1575.0
 20
20.0
 30
0.0
 11
1575.0
 21
16.10000014305114
 31
0.0
  0
LINE
  5
114
330
C5
100
AcDbEntity
  8
Rahmen (ISO)
100
AcDbLine
 10
1575.0
 20
1480.0
 30
0.0
 11
1575.0
 21
1483.899993896484
 31
0.0
  0
LINE
  5
115
330
C5
100
AcDbEntity
  8
Rahmen (ISO)
100
AcDbLine
 10
1725.0
 20
20.0
 30
0.0
 11
1725.0
 21
16.10000014305114
 31
0.0
  0
LINE
  5
116
330
C5
100
AcDbEntity
  8
Rahmen (ISO)
100
AcDbLine
 10
1725.0
 20
1480.0
 30
0.0
 11
1725.0
 21
1483.899993896484
 31
0.0
  0
LINE
  5
117
330
C5
100
AcDbEntity
  8
Rahmen (ISO)
100
AcDbLine
 10
1800.0
 20
20.0
 30
0.0
 11
1800.0
 21
16.10000014305114
 31
0.0
  0
LINE
  5
118
330
C5
100
AcDbEntity
  8
Rahmen (ISO)
100
AcDbLine
 10
1800.0
 20
1480.0
 30
0.0
 11
1800.0
 21
1483.899993896484
 31
0.0
  0
LINE
  5
119
330
C5
100
AcDbEntity
  8
Rahmen (ISO)
100
AcDbLine
 10
1875.0
 20
20.0
 30
0.0
 11
1875.0
 21
16.10000014305114
 31
0.0
  0
LINE
  5
11A
330
C5
100
AcDbEntity
  8
Rahmen (ISO)
100
AcDbLine
 10
1875.0
 20
1480.0
 30
0.0
 11
1875.0
 21
1483.899993896484
 31
0.0
  0
LINE
  5
11B
330
C5
100
AcDbEntity
  8
Rahmen (ISO)
100
AcDbLine
 10
1950.0
 20
20.0
 30
0.0
 11
1950.0
 21
16.10000014305114
 31
0.0
  0
LINE
  5
11C
330
C5
100
AcDbEntity
  8
Rahmen (ISO)
100
AcDbLine
 10
1950.0
 20
1480.0
 30
0.0
 11
1950.0
 21
1483.899993896484
 31
0.0
  0
LINE
  5
11D
330
C5
100
AcDbEntity
  8
Rahmen (ISO)
100
AcDbLine
 10
2025.0
 20
20.0
 30
0.0
 11
2025.0
 21
16.10000014305114
 31
0.0
  0
LINE
  5
11E
330
C5
100
AcDbEntity
  8
Rahmen (ISO)
100
AcDbLine
 10
2025.0
 20
1480.0
 30
0.0
 11
2025.0
 21
1483.899993896484
 31
0.0
  0
LINE
  5
11F
330
C5
100
AcDbEntity
  8
Rahmen (ISO)
100
AcDbLine
 10
2100.0
 20
20.0
 30
0.0
 11
2100.0
 21
16.10000014305114
 31
0.0
  0
LINE
  5
120
330
C5
100
AcDbEntity
  8
Rahmen (ISO)
100
AcDbLine
 10
2100.0
 20
1480.0
 30
0.0
 11
2100.0
 21
1483.899993896484
 31
0.0
  0
LINE
  5
121
330
C5
100
AcDbEntity
  8
Rahmen (ISO)
100
AcDbLine
 10
2175.0
 20
20.0
 30
0.0
 11
2175.0
 21
16.10000014305114
 31
0.0
  0
LINE
  5
122
330
C5
100
AcDbEntity
  8
Rahmen (ISO)
100
AcDbLine
 10
2175.0
 20
1480.0
 30
0.0
 11
2175.0
 21
1483.899993896484
 31
0.0
  0
LINE
  5
123
330
C5
100
AcDbEntity
  8
Rahmen (ISO)
100
AcDbLine
 10
2250.0
 20
20.0
 30
0.0
 11
2250.0
 21
16.10000014305114
 31
0.0
  0
LINE
  5
124
330
C5
100
AcDbEntity
  8
Rahmen (ISO)
100
AcDbLine
 10
2250.0
 20
1480.0
 30
0.0
 11
2250.0
 21
1483.899993896484
 31
0.0
  0
LINE
  5
125
330
C5
100
AcDbEntity
  8
Rahmen (ISO)
100
AcDbLine
 10
2325.0
 20
20.0
 30
0.0
 11
2325.0
 21
16.10000014305114
 31
0.0
  0
LINE
  5
126
330
C5
100
AcDbEntity
  8
Rahmen (ISO)
100
AcDbLine
 10
2325.0
 20
1480.0
 30
0.0
 11
2325.0
 21
1483.899993896484
 31
0.0
  0
LINE
  5
127
330
C5
100
AcDbEntity
  8
Rahmen (ISO)
100
AcDbLine
 10
2400.0
 20
20.0
 30
0.0
 11
2400.0
 21
16.10000014305114
 31
0.0
  0
LINE
  5
128
330
C5
100
AcDbEntity
  8
Rahmen (ISO)
100
AcDbLine
 10
2400.0
 20
1480.0
 30
0.0
 11
2400.0
 21
1483.899993896484
 31
0.0
  0
LINE
  5
129
330
C5
100
AcDbEntity
  8
Rahmen (ISO)
100
AcDbLine
 10
2475.0
 20
20.0
 30
0.0
 11
2475.0
 21
16.10000014305114
 31
0.0
  0
LINE
  5
12A
330
C5
100
AcDbEntity
  8
Rahmen (ISO)
100
AcDbLine
 10
2475.0
 20
1480.0
 30
0.0
 11
2475.0
 21
1483.899993896484
 31
0.0
  0
LINE
  5
12B
330
C5
100
AcDbEntity
  8
Rahmen (ISO)
100
AcDbLine
 10
2550.0
 20
20.0
 30
0.0
 11
2550.0
 21
16.10000014305114
 31
0.0
  0
LINE
  5
12C
330
C5
100
AcDbEntity
  8
Rahmen (ISO)
100
AcDbLine
 10
2550.0
 20
1480.0
 30
0.0
 11
2550.0
 21
1483.899993896484
 31
0.0
  0
LINE
  5
12D
330
C5
100
AcDbEntity
  8
Rahmen (ISO)
100
AcDbLine
 10
2625.0
 20
20.0
 30
0.0
 11
2625.0
 21
16.10000014305114
 31
0.0
  0
LINE
  5
12E
330
C5
100
AcDbEntity
  8
Rahmen (ISO)
100
AcDbLine
 10
2625.0
 20
1480.0
 30
0.0
 11
2625.0
 21
1483.899993896484
 31
0.0
  0
LINE
  5
12F
330
C5
100
AcDbEntity
  8
Rahmen (ISO)
100
AcDbLine
 10
2700.0
 20
20.0
 30
0.0
 11
2700.0
 21
16.10000014305114
 31
0.0
  0
LINE
  5
130
330
C5
100
AcDbEntity
  8
Rahmen (ISO)
100
AcDbLine
 10
2700.0
 20
1480.0
 30
0.0
 11
2700.0
 21
1483.899993896484
 31
0.0
  0
LINE
  5
131
330
C5
100
AcDbEntity
  8
Rahmen (ISO)
100
AcDbLine
 10
2775.0
 20
20.0
 30
0.0
 11
2775.0
 21
16.10000014305114
 31
0.0
  0
LINE
  5
132
330
C5
100
AcDbEntity
  8
Rahmen (ISO)
100
AcDbLine
 10
2775.0
 20
1480.0
 30
0.0
 11
2775.0
 21
1483.899993896484
 31
0.0
  0
LINE
  5
133
330
C5
100
AcDbEntity
  8
Rahmen (ISO)
100
AcDbLine
 10
2850.0
 20
20.0
 30
0.0
 11
2850.0
 21
16.10000014305114
 31
0.0
  0
LINE
  5
134
330
C5
100
AcDbEntity
  8
Rahmen (ISO)
100
AcDbLine
 10
2850.0
 20
1480.0
 30
0.0
 11
2850.0
 21
1483.899993896484
 31
0.0
  0
LINE
  5
135
330
C5
100
AcDbEntity
  8
Rahmen (ISO)
100
AcDbLine
 10
2925.0
 20
20.0
 30
0.0
 11
2925.0
 21
16.10000014305114
 31
0.0
  0
LINE
  5
136
330
C5
100
AcDbEntity
  8
Rahmen (ISO)
100
AcDbLine
 10
2925.0
 20
1480.0
 30
0.0
 11
2925.0
 21
1483.899993896484
 31
0.0
  0
LINE
  5
137
330
C5
100
AcDbEntity
  8
Rahmen (ISO)
100
AcDbLine
 10
3000.0
 20
20.0
 30
0.0
 11
3000.0
 21
16.10000014305114
 31
0.0
  0
LINE
  5
138
330
C5
100
AcDbEntity
  8
Rahmen (ISO)
100
AcDbLine
 10
3000.0
 20
1480.0
 30
0.0
 11
3000.0
 21
1483.899993896484
 31
0.0
  0
LINE
  5
139
330
C5
100
AcDbEntity
  8
Rahmen (ISO)
100
AcDbLine
 10
3075.0
 20
20.0
 30
0.0
 11
3075.0
 21
16.10000014305114
 31
0.0
  0
LINE
  5
13A
330
C5
100
AcDbEntity
  8
Rahmen (ISO)
100
AcDbLine
 10
3075.0
 20
1480.0
 30
0.0
 11
3075.0
 21
1483.899993896484
 31
0.0
  0
LINE
  5
13B
330
C5
100
AcDbEntity
  8
Rahmen (ISO)
100
AcDbLine
 10
3150.0
 20
20.0
 30
0.0
 11
3150.0
 21
16.10000014305114
 31
0.0
  0
LINE
  5
13C
330
C5
100
AcDbEntity
  8
Rahmen (ISO)
100
AcDbLine
 10
3150.0
 20
1480.0
 30
0.0
 11
3150.0
 21
1483.899993896484
 31
0.0
  0
LINE
  5
13D
330
C5
100
AcDbEntity
  8
Rahmen (ISO)
100
AcDbLine
 10
3225.0
 20
20.0
 30
0.0
 11
3225.0
 21
16.10000014305114
 31
0.0
  0
LINE
  5
13E
330
C5
100
AcDbEntity
  8
Rahmen (ISO)
100
AcDbLine
 10
3225.0
 20
1480.0
 30
0.0
 11
3225.0
 21
1483.899993896484
 31
0.0
  0
MTEXT
  5
140
330
C5
100
AcDbEntity
  8
Rahmen (ISO)
100
AcDbMText
 10
3262.147460952402
 20
1480.4
 30
0.0
 40
3.499999940395355
 41
0.0
 71
     7
 72
     1
  1
1
  7
Textstil7
 73
     1
 44
1.0
1001
ACAD
1000
MTEXTBEGIN
1070
    73
1070
     1
1070
    44
1040
1.0
1070
    74
1070
     0
1000
MTEXTEND
  0
MTEXT
  5
143
330
C5
100
AcDbEntity
  8
Rahmen (ISO)
100
AcDbMText
 10
3262.147460952402
 20
16.10000005960464
 30
0.0
 40
3.499999940395355
 41
0.0
 71
     7
 72
     1
  1
1
  7
Textstil7
 73
     1
 44
1.0
1001
ACAD
1000
MTEXTBEGIN
1070
    73
1070
     1
1070
    44
1040
1.0
1070
    74
1070
     0
1000
MTEXTEND
  0
MTEXT
  5
144
330
C5
100
AcDbEntity
  8
Rahmen (ISO)
100
AcDbMText
 10
3186.803317815066
 20
1480.4
 30
0.0
 40
3.499999940395355
 41
0.0
 71
     7
 72
     1
  1
2
  7
Textstil7
 73
     1
 44
1.0
1001
ACAD
1000
MTEXTBEGIN
1070
    73
1070
     1
1070
    44
1040
1.0
1070
    74
1070
     0
1000
MTEXTEND
  0
MTEXT
  5
145
330
C5
100
AcDbEntity
  8
Rahmen (ISO)
100
AcDbMText
 10
3186.803317815066
 20
16.10000005960464
 30
0.0
 40
3.499999940395355
 41
0.0
 71
     7
 72
     1
  1
2
  7
Textstil7
 73
     1
 44
1.0
1001
ACAD
1000
MTEXTBEGIN
1070
    73
1070
     1
1070
    44
1040
1.0
1070
    74
1070
     0
1000
MTEXTEND
  0
MTEXT
  5
146
330
C5
100
AcDbEntity
  8
Rahmen (ISO)
100
AcDbMText
 10
3111.803317815065
 20
1480.4
 30
0.0
 40
3.499999940395355
 41
0.0
 71
     7
 72
     1
  1
3
  7
Textstil7
 73
     1
 44
1.0
1001
ACAD
1000
MTEXTBEGIN
1070
    73
1070
     1
1070
    44
1040
1.0
1070
    74
1070
     0
1000
MTEXTEND
  0
MTEXT
  5
147
330
C5
100
AcDbEntity
  8
Rahmen (ISO)
100
AcDbMText
 10
3111.803317815065
 20
16.10000005960464
 30
0.0
 40
3.499999940395355
 41
0.0
 71
     7
 72
     1
  1
3
  7
Textstil7
 73
     1
 44
1.0
1001
ACAD
1000
MTEXTBEGIN
1070
    73
1070
     1
1070
    44
1040
1.0
1070
    74
1070
     0
1000
MTEXTEND
  0
MTEXT
  5
148
330
C5
100
AcDbEntity
  8
Rahmen (ISO)
100
AcDbMText
 10
3036.627993136645
 20
1480.4
 30
0.0
 40
3.499999940395355
 41
0.0
 71
     7
 72
     1
  1
4
  7
Textstil7
 73
     1
 44
1.0
1001
ACAD
1000
MTEXTBEGIN
1070
    73
1070
     1
1070
    44
1040
1.0
1070
    74
1070
     0
1000
MTEXTEND
  0
MTEXT
  5
149
330
C5
100
AcDbEntity
  8
Rahmen (ISO)
100
AcDbMText
 10
3036.627993136645
 20
16.10000005960464
 30
0.0
 40
3.499999940395355
 41
0.0
 71
     7
 72
     1
  1
4
  7
Textstil7
 73
     1
 44
1.0
1001
ACAD
1000
MTEXTBEGIN
1070
    73
1070
     1
1070
    44
1040
1.0
1070
    74
1070
     0
1000
MTEXTEND
  0
MTEXT
  5
14A
330
C5
100
AcDbEntity
  8
Rahmen (ISO)
100
AcDbMText
 10
2961.803317815066
 20
1480.4
 30
0.0
 40
3.499999940395355
 41
0.0
 71
     7
 72
     1
  1
5
  7
Textstil7
 73
     1
 44
1.0
1001
ACAD
1000
MTEXTBEGIN
1070
    73
1070
     1
1070
    44
1040
1.0
1070
    74
1070
     0
1000
MTEXTEND
  0
MTEXT
  5
14B
330
C5
100
AcDbEntity
  8
Rahmen (ISO)
100
AcDbMText
 10
2961.803317815066
 20
16.10000005960464
 30
0.0
 40
3.499999940395355
 41
0.0
 71
     7
 72
     1
  1
5
  7
Textstil7
 73
     1
 44
1.0
1001
ACAD
1000
MTEXTBEGIN
1070
    73
1070
     1
1070
    44
1040
1.0
1070
    74
1070
     0
1000
MTEXTEND
  0
MTEXT
  5
14C
330
C5
100
AcDbEntity
  8
Rahmen (ISO)
100
AcDbMText
 10
2886.803317815065
 20
1480.4
 30
0.0
 40
3.499999940395355
 41
0.0
 71
     7
 72
     1
  1
6
  7
Textstil7
 73
     1
 44
1.0
1001
ACAD
1000
MTEXTBEGIN
1070
    73
1070
     1
1070
    44
1040
1.0
1070
    74
1070
     0
1000
MTEXTEND
  0
MTEXT
  5
14D
330
C5
100
AcDbEntity
  8
Rahmen (ISO)
100
AcDbMText
 10
2886.803317815065
 20
16.10000005960464
 30
0.0
 40
3.499999940395355
 41
0.0
 71
     7
 72
     1
  1
6
  7
Textstil7
 73
     1
 44
1.0
1001
ACAD
1000
MTEXTBEGIN
1070
    73
1070
     1
1070
    44
1040
1.0
1070
    74
1070
     0
1000
MTEXTEND
  0
MTEXT
  5
14E
330
C5
100
AcDbEntity
  8
Rahmen (ISO)
100
AcDbMText
 10
2811.798435002565
 20
1480.4
 30
0.0
 40
3.499999940395355
 41
0.0
 71
     7
 72
     1
  1
7
  7
Textstil7
 73
     1
 44
1.0
1001
ACAD
1000
MTEXTBEGIN
1070
    73
1070
     1
1070
    44
1040
1.0
1070
    74
1070
     0
1000
MTEXTEND
  0
MTEXT
  5
14F
330
C5
100
AcDbEntity
  8
Rahmen (ISO)
100
AcDbMText
 10
2811.798435002565
 20
16.10000005960464
 30
0.0
 40
3.499999940395355
 41
0.0
 71
     7
 72
     1
  1
7
  7
Textstil7
 73
     1
 44
1.0
1001
ACAD
1000
MTEXTBEGIN
1070
    73
1070
     1
1070
    44
1040
1.0
1070
    74
1070
     0
1000
MTEXTEND
  0
MTEXT
  5
150
330
C5
100
AcDbEntity
  8
Rahmen (ISO)
100
AcDbMText
 10
2736.803317815065
 20
1480.4
 30
0.0
 40
3.499999940395355
 41
0.0
 71
     7
 72
     1
  1
8
  7
Textstil7
 73
     1
 44
1.0
1001
ACAD
1000
MTEXTBEGIN
1070
    73
1070
     1
1070
    44
1040
1.0
1070
    74
1070
     0
1000
MTEXTEND
  0
MTEXT
  5
151
330
C5
100
AcDbEntity
  8
Rahmen (ISO)
100
AcDbMText
 10
2736.803317815065
 20
16.10000005960464
 30
0.0
 40
3.499999940395355
 41
0.0
 71
     7
 72
     1
  1
8
  7
Textstil7
 73
     1
 44
1.0
1001
ACAD
1000
MTEXTBEGIN
1070
    73
1070
     1
1070
    44
1040
1.0
1070
    74
1070
     0
1000
MTEXTEND
  0
MTEXT
  5
152
330
C5
100
AcDbEntity
  8
Rahmen (ISO)
100
AcDbMText
 10
2661.803317815066
 20
1480.4
 30
0.0
 40
3.499999940395355
 41
0.0
 71
     7
 72
     1
  1
9
  7
Textstil7
 73
     1
 44
1.0
1001
ACAD
1000
MTEXTBEGIN
1070
    73
1070
     1
1070
    44
1040
1.0
1070
    74
1070
     0
1000
MTEXTEND
  0
MTEXT
  5
153
330
C5
100
AcDbEntity
  8
Rahmen (ISO)
100
AcDbMText
 10
2661.803317815066
 20
16.10000005960464
 30
0.0
 40
3.499999940395355
 41
0.0
 71
     7
 72
     1
  1
9
  7
Textstil7
 73
     1
 44
1.0
1001
ACAD
1000
MTEXTBEGIN
1070
    73
1070
     1
1070
    44
1040
1.0
1070
    74
1070
     0
1000
MTEXTEND
  0
MTEXT
  5
154
330
C5
100
AcDbEntity
  8
Rahmen (ISO)
100
AcDbMText
 10
2585.923434942961
 20
1480.4
 30
0.0
 40
3.499999940395355
 41
0.0
 71
     7
 72
     1
  1
10
  7
Textstil7
 73
     1
 44
1.0
1001
ACAD
1000
MTEXTBEGIN
1070
    73
1070
     1
1070
    44
1040
1.0
1070
    74
1070
     0
1000
MTEXTEND
  0
MTEXT
  5
155
330
C5
100
AcDbEntity
  8
Rahmen (ISO)
100
AcDbMText
 10
2585.923434942961
 20
16.10000005960464
 30
0.0
 40
3.499999940395355
 41
0.0
 71
     7
 72
     1
  1
10
  7
Textstil7
 73
     1
 44
1.0
1001
ACAD
1000
MTEXTBEGIN
1070
    73
1070
     1
1070
    44
1040
1.0
1070
    74
1070
     0
1000
MTEXTEND
  0
MTEXT
  5
156
330
C5
100
AcDbEntity
  8
Rahmen (ISO)
100
AcDbMText
 10
2511.272460967302
 20
1480.4
 30
0.0
 40
3.499999940395355
 41
0.0
 71
     7
 72
     1
  1
11
  7
Textstil7
 73
     1
 44
1.0
1001
ACAD
1000
MTEXTBEGIN
1070
    73
1070
     1
1070
    44
1040
1.0
1070
    74
1070
     0
1000
MTEXTEND
  0
MTEXT
  5
157
330
C5
100
AcDbEntity
  8
Rahmen (ISO)
100
AcDbMText
 10
2511.272460967302
 20
16.10000005960464
 30
0.0
 40
3.499999940395355
 41
0.0
 71
     7
 72
     1
  1
11
  7
Textstil7
 73
     1
 44
1.0
1001
ACAD
1000
MTEXTBEGIN
1070
    73
1070
     1
1070
    44
1040
1.0
1070
    74
1070
     0
1000
MTEXTEND
  0
MTEXT
  5
158
330
C5
100
AcDbEntity
  8
Rahmen (ISO)
100
AcDbMText
 10
2435.923434942961
 20
1480.4
 30
0.0
 40
3.499999940395355
 41
0.0
 71
     7
 72
     1
  1
12
  7
Textstil7
 73
     1
 44
1.0
1001
ACAD
1000
MTEXTBEGIN
1070
    73
1070
     1
1070
    44
1040
1.0
1070
    74
1070
     0
1000
MTEXTEND
  0
MTEXT
  5
159
330
C5
100
AcDbEntity
  8
Rahmen (ISO)
100
AcDbMText
 10
2435.923434942961
 20
16.10000005960464
 30
0.0
 40
3.499999940395355
 41
0.0
 71
     7
 72
     1
  1
12
  7
Textstil7
 73
     1
 44
1.0
1001
ACAD
1000
MTEXTBEGIN
1070
    73
1070
     1
1070
    44
1040
1.0
1070
    74
1070
     0
1000
MTEXTEND
  0
MTEXT
  5
15A
330
C5
100
AcDbEntity
  8
Rahmen (ISO)
100
AcDbMText
 10
2360.923434942961
 20
1480.4
 30
0.0
 40
3.499999940395355
 41
0.0
 71
     7
 72
     1
  1
13
  7
Textstil7
 73
     1
 44
1.0
1001
ACAD
1000
MTEXTBEGIN
1070
    73
1070
     1
1070
    44
1040
1.0
1070
    74
1070
     0
1000
MTEXTEND
  0
MTEXT
  5
15B
330
C5
100
AcDbEntity
  8
Rahmen (ISO)
100
AcDbMText
 10
2360.923434942961
 20
16.10000005960464
 30
0.0
 40
3.499999940395355
 41
0.0
 71
     7
 72
     1
  1
13
  7
Textstil7
 73
     1
 44
1.0
1001
ACAD
1000
MTEXTBEGIN
1070
    73
1070
     1
1070
    44
1040
1.0
1070
    74
1070
     0
1000
MTEXTEND
  0
MTEXT
  5
15C
330
C5
100
AcDbEntity
  8
Rahmen (ISO)
100
AcDbMText
 10
2285.74811026454
 20
1480.4
 30
0.0
 40
3.499999940395355
 41
0.0
 71
     7
 72
     1
  1
14
  7
Textstil7
 73
     1
 44
1.0
1001
ACAD
1000
MTEXTBEGIN
1070
    73
1070
     1
1070
    44
1040
1.0
1070
    74
1070
     0
1000
MTEXTEND
  0
MTEXT
  5
15D
330
C5
100
AcDbEntity
  8
Rahmen (ISO)
100
AcDbMText
 10
2285.74811026454
 20
16.10000005960464
 30
0.0
 40
3.499999940395355
 41
0.0
 71
     7
 72
     1
  1
14
  7
Textstil7
 73
     1
 44
1.0
1001
ACAD
1000
MTEXTBEGIN
1070
    73
1070
     1
1070
    44
1040
1.0
1070
    74
1070
     0
1000
MTEXTEND
  0
MTEXT
  5
15E
330
C5
100
AcDbEntity
  8
Rahmen (ISO)
100
AcDbMText
 10
2210.923434942961
 20
1480.4
 30
0.0
 40
3.499999940395355
 41
0.0
 71
     7
 72
     1
  1
15
  7
Textstil7
 73
     1
 44
1.0
1001
ACAD
1000
MTEXTBEGIN
1070
    73
1070
     1
1070
    44
1040
1.0
1070
    74
1070
     0
1000
MTEXTEND
  0
MTEXT
  5
15F
330
C5
100
AcDbEntity
  8
Rahmen (ISO)
100
AcDbMText
 10
2210.923434942961
 20
16.10000005960464
 30
0.0
 40
3.499999940395355
 41
0.0
 71
     7
 72
     1
  1
15
  7
Textstil7
 73
     1
 44
3.539531230926513
1001
ACAD
1000
MTEXTBEGIN
1070
    73
1070
     1
1070
    44
1040
3.539531230926513
1070
    74
1070
     0
1000
MTEXTEND
  0
MTEXT
  5
160
330
C5
100
AcDbEntity
  8
Rahmen (ISO)
100
AcDbMText
 10
2135.923434942961
 20
1480.4
 30
0.0
 40
3.499999940395355
 41
0.0
 71
     7
 72
     1
  1
16
  7
Textstil7
 73
     1
 44
1.0
1001
ACAD
1000
MTEXTBEGIN
1070
    73
1070
     1
1070
    44
1040
1.0
1070
    74
1070
     0
1000
MTEXTEND
  0
MTEXT
  5
161
330
C5
100
AcDbEntity
  8
Rahmen (ISO)
100
AcDbMText
 10
2135.923434942961
 20
16.10000005960464
 30
0.0
 40
3.499999940395355
 41
0.0
 71
     7
 72
     1
  1
16
  7
Textstil7
 73
     1
 44
1.0
1001
ACAD
1000
MTEXTBEGIN
1070
    73
1070
     1
1070
    44
1040
1.0
1070
    74
1070
     0
1000
MTEXTEND
  0
MTEXT
  5
162
330
C5
100
AcDbEntity
  8
Rahmen (ISO)
100
AcDbMText
 10
2060.923434942961
 20
1480.4
 30
0.0
 40
3.499999940395355
 41
0.0
 71
     7
 72
     1
  1
17
  7
Textstil7
 73
     1
 44
1.0
1001
ACAD
1000
MTEXTBEGIN
1070
    73
1070
     1
1070
    44
1040
1.0
1070
    74
1070
     0
1000
MTEXTEND
  0
MTEXT
  5
163
330
C5
100
AcDbEntity
  8
Rahmen (ISO)
100
AcDbMText
 10
2060.923434942961
 20
16.10000005960464
 30
0.0
 40
3.499999940395355
 41
0.0
 71
     7
 72
     1
  1
17
  7
Textstil7
 73
     1
 44
1.0
1001
ACAD
1000
MTEXTBEGIN
1070
    73
1070
     1
1070
    44
1040
1.0
1070
    74
1070
     0
1000
MTEXTEND
  0
MTEXT
  5
164
330
C5
100
AcDbEntity
  8
Rahmen (ISO)
100
AcDbMText
 10
1985.923434942961
 20
1480.4
 30
0.0
 40
3.499999940395355
 41
0.0
 71
     7
 72
     1
  1
18
  7
Textstil7
 73
     1
 44
1.0
1001
ACAD
1000
MTEXTBEGIN
1070
    73
1070
     1
1070
    44
1040
1.0
1070
    74
1070
     0
1000
MTEXTEND
  0
MTEXT
  5
165
330
C5
100
AcDbEntity
  8
Rahmen (ISO)
100
AcDbMText
 10
1985.923434942961
 20
16.10000005960464
 30
0.0
 40
3.499999940395355
 41
0.0
 71
     7
 72
     1
  1
18
  7
Textstil7
 73
     1
 44
1.0
1001
ACAD
1000
MTEXTBEGIN
1070
    73
1070
     1
1070
    44
1040
1.0
1070
    74
1070
     0
1000
MTEXTEND
  0
MTEXT
  5
166
330
C5
100
AcDbEntity
  8
Rahmen (ISO)
100
AcDbMText
 10
1910.923434942961
 20
1480.4
 30
0.0
 40
3.499999940395355
 41
0.0
 71
     7
 72
     1
  1
19
  7
Textstil7
 73
     1
 44
1.0
1001
ACAD
1000
MTEXTBEGIN
1070
    73
1070
     1
1070
    44
1040
1.0
1070
    74
1070
     0
1000
MTEXTEND
  0
MTEXT
  5
167
330
C5
100
AcDbEntity
  8
Rahmen (ISO)
100
AcDbMText
 10
1910.923434942961
 20
16.10000005960464
 30
0.0
 40
3.499999940395355
 41
0.0
 71
     7
 72
     1
  1
19
  7
Textstil7
 73
     1
 44
1.0
1001
ACAD
1000
MTEXTBEGIN
1070
    73
1070
     1
1070
    44
1040
1.0
1070
    74
1070
     0
1000
MTEXTEND
  0
MTEXT
  5
168
330
C5
100
AcDbEntity
  8
Rahmen (ISO)
100
AcDbMText
 10
1835.579291880131
 20
1480.4
 30
0.0
 40
3.499999940395355
 41
0.0
 71
     7
 72
     1
  1
20
  7
Textstil7
 73
     1
 44
1.0
1001
ACAD
1000
MTEXTBEGIN
1070
    73
1070
     1
1070
    44
1040
1.0
1070
    74
1070
     0
1000
MTEXTEND
  0
MTEXT
  5
169
330
C5
100
AcDbEntity
  8
Rahmen (ISO)
100
AcDbMText
 10
1835.579291880131
 20
16.10000005960464
 30
0.0
 40
3.499999940395355
 41
0.0
 71
     7
 72
     1
  1
20
  7
Textstil7
 73
     1
 44
1.0
1001
ACAD
1000
MTEXTBEGIN
1070
    73
1070
     1
1070
    44
1040
1.0
1070
    74
1070
     0
1000
MTEXTEND
  0
MTEXT
  5
16A
330
C5
100
AcDbEntity
  8
Rahmen (ISO)
100
AcDbMText
 10
1760.928317755461
 20
1480.4
 30
0.0
 40
3.499999940395355
 41
0.0
 71
     7
 72
     1
  1
21
  7
Textstil7
 73
     1
 44
1.0
1001
ACAD
1000
MTEXTBEGIN
1070
    73
1070
     1
1070
    44
1040
1.0
1070
    74
1070
     0
1000
MTEXTEND
  0
MTEXT
  5
16B
330
C5
100
AcDbEntity
  8
Rahmen (ISO)
100
AcDbMText
 10
1760.928317755461
 20
16.10000005960464
 30
0.0
 40
3.499999940395355
 41
0.0
 71
     7
 72
     1
  1
21
  7
Textstil7
 73
     1
 44
1.0
1001
ACAD
1000
MTEXTBEGIN
1070
    73
1070
     1
1070
    44
1040
1.0
1070
    74
1070
     0
1000
MTEXTEND
  0
MTEXT
  5
16C
330
C5
100
AcDbEntity
  8
Rahmen (ISO)
100
AcDbMText
 10
1685.57929188013
 20
1480.4
 30
0.0
 40
3.499999940395355
 41
0.0
 71
     7
 72
     1
  1
22
  7
Textstil7
 73
     1
 44
1.0
1001
ACAD
1000
MTEXTBEGIN
1070
    73
1070
     1
1070
    44
1040
1.0
1070
    74
1070
     0
1000
MTEXTEND
  0
MTEXT
  5
16D
330
C5
100
AcDbEntity
  8
Rahmen (ISO)
100
AcDbMText
 10
1685.57929188013
 20
16.10000005960464
 30
0.0
 40
3.499999940395355
 41
0.0
 71
     7
 72
     1
  1
22
  7
Textstil7
 73
     1
 44
1.0
1001
ACAD
1000
MTEXTBEGIN
1070
    73
1070
     1
1070
    44
1040
1.0
1070
    74
1070
     0
1000
MTEXTEND
  0
MTEXT
  5
16E
330
C5
100
AcDbEntity
  8
Rahmen (ISO)
100
AcDbMText
 10
1610.57929188013
 20
1480.4
 30
0.0
 40
3.499999940395355
 41
0.0
 71
     7
 72
     1
  1
23
  7
Textstil7
 73
     1
 44
1.0
1001
ACAD
1000
MTEXTBEGIN
1070
    73
1070
     1
1070
    44
1040
1.0
1070
    74
1070
     0
1000
MTEXTEND
  0
MTEXT
  5
16F
330
C5
100
AcDbEntity
  8
Rahmen (ISO)
100
AcDbMText
 10
1610.57929188013
 20
16.10000005960464
 30
0.0
 40
3.499999940395355
 41
0.0
 71
     7
 72
     1
  1
23
  7
Textstil7
 73
     1
 44
1.0
1001
ACAD
1000
MTEXTBEGIN
1070
    73
1070
     1
1070
    44
1040
1.0
1070
    74
1070
     0
1000
MTEXTEND
  0
MTEXT
  5
170
330
C5
100
AcDbEntity
  8
Rahmen (ISO)
100
AcDbMText
 10
1535.40396720171
 20
1480.4
 30
0.0
 40
3.499999940395355
 41
0.0
 71
     7
 72
     1
  1
24
  7
Textstil7
 73
     1
 44
1.0
1001
ACAD
1000
MTEXTBEGIN
1070
    73
1070
     1
1070
    44
1040
1.0
1070
    74
1070
     0
1000
MTEXTEND
  0
MTEXT
  5
171
330
C5
100
AcDbEntity
  8
Rahmen (ISO)
100
AcDbMText
 10
1535.40396720171
 20
16.10000005960464
 30
0.0
 40
3.499999940395355
 41
0.0
 71
     7
 72
     1
  1
24
  7
Textstil7
 73
     1
 44
1.0
1001
ACAD
1000
MTEXTBEGIN
1070
    73
1070
     1
1070
    44
1040
1.0
1070
    74
1070
     0
1000
MTEXTEND
  0
MTEXT
  5
172
330
C5
100
AcDbEntity
  8
Rahmen (ISO)
100
AcDbMText
 10
1460.57929188013
 20
1480.4
 30
0.0
 40
3.499999940395355
 41
0.0
 71
     7
 72
     1
  1
25
  7
Textstil7
 73
     1
 44
1.0
1001
ACAD
1000
MTEXTBEGIN
1070
    73
1070
     1
1070
    44
1040
1.0
1070
    74
1070
     0
1000
MTEXTEND
  0
MTEXT
  5
173
330
C5
100
AcDbEntity
  8
Rahmen (ISO)
100
AcDbMText
 10
1460.57929188013
 20
16.10000005960464
 30
0.0
 40
3.499999940395355
 41
0.0
 71
     7
 72
     1
  1
25
  7
Textstil7
 73
     1
 44
1.0
1001
ACAD
1000
MTEXTBEGIN
1070
    73
1070
     1
1070
    44
1040
1.0
1070
    74
1070
     0
1000
MTEXTEND
  0
MTEXT
  5
174
330
C5
100
AcDbEntity
  8
Rahmen (ISO)
100
AcDbMText
 10
1385.579291880131
 20
1480.4
 30
0.0
 40
3.499999940395355
 41
0.0
 71
     7
 72
     1
  1
26
  7
Textstil7
 73
     1
 44
1.0
1001
ACAD
1000
MTEXTBEGIN
1070
    73
1070
     1
1070
    44
1040
1.0
1070
    74
1070
     0
1000
MTEXTEND
  0
MTEXT
  5
175
330
C5
100
AcDbEntity
  8
Rahmen (ISO)
100
AcDbMText
 10
1385.579291880131
 20
16.10000005960464
 30
0.0
 40
3.499999940395355
 41
0.0
 71
     7
 72
     1
  1
26
  7
Textstil7
 73
     1
 44
1.0
1001
ACAD
1000
MTEXTBEGIN
1070
    73
1070
     1
1070
    44
1040
1.0
1070
    74
1070
     0
1000
MTEXTEND
  0
MTEXT
  5
176
330
C5
100
AcDbEntity
  8
Rahmen (ISO)
100
AcDbMText
 10
1310.579291880131
 20
1480.4
 30
0.0
 40
3.499999940395355
 41
0.0
 71
     7
 72
     1
  1
27
  7
Textstil7
 73
     1
 44
1.976249933242796
1001
ACAD
1000
MTEXTBEGIN
1070
    73
1070
     1
1070
    44
1040
1.976249933242796
1070
    74
1070
     0
1000
MTEXTEND
  0
MTEXT
  5
177
330
C5
100
AcDbEntity
  8
Rahmen (ISO)
100
AcDbMText
 10
1310.579291880131
 20
16.10000005960464
 30
0.0
 40
3.499999940395355
 41
0.0
 71
     7
 72
     1
  1
27
  7
Textstil7
 73
     1
 44
1.0
1001
ACAD
1000
MTEXTBEGIN
1070
    73
1070
     1
1070
    44
1040
1.0
1070
    74
1070
     0
1000
MTEXTEND
  0
MTEXT
  5
178
330
C5
100
AcDbEntity
  8
Rahmen (ISO)
100
AcDbMText
 10
1235.579291880131
 20
1480.4
 30
0.0
 40
3.499999940395355
 41
0.0
 71
     7
 72
     1
  1
28
  7
Textstil7
 73
     1
 44
1.0
1001
ACAD
1000
MTEXTBEGIN
1070
    73
1070
     1
1070
    44
1040
1.0
1070
    74
1070
     0
1000
MTEXTEND
  0
MTEXT
  5
179
330
C5
100
AcDbEntity
  8
Rahmen (ISO)
100
AcDbMText
 10
1235.579291880131
 20
16.10000005960464
 30
0.0
 40
3.499999940395355
 41
0.0
 71
     7
 72
     1
  1
28
  7
Textstil7
 73
     1
 44
1.0
1001
ACAD
1000
MTEXTBEGIN
1070
    73
1070
     1
1070
    44
1040
1.0
1070
    74
1070
     0
1000
MTEXTEND
  0
MTEXT
  5
17A
330
C5
100
AcDbEntity
  8
Rahmen (ISO)
100
AcDbMText
 10
1160.57929188013
 20
1480.4
 30
0.0
 40
3.499999940395355
 41
0.0
 71
     7
 72
     1
  1
29
  7
Textstil7
 73
     1
 44
1.0
1001
ACAD
1000
MTEXTBEGIN
1070
    73
1070
     1
1070
    44
1040
1.0
1070
    74
1070
     0
1000
MTEXTEND
  0
MTEXT
  5
17B
330
C5
100
AcDbEntity
  8
Rahmen (ISO)
100
AcDbMText
 10
1160.57929188013
 20
16.10000005960464
 30
0.0
 40
3.499999940395355
 41
0.0
 71
     7
 72
     1
  1
29
  7
Textstil7
 73
     1
 44
1.0
1001
ACAD
1000
MTEXTBEGIN
1070
    73
1070
     1
1070
    44
1040
1.0
1070
    74
1070
     0
1000
MTEXTEND
  0
MTEXT
  5
17C
330
C5
100
AcDbEntity
  8
Rahmen (ISO)
100
AcDbMText
 10
1085.579291880131
 20
1480.4
 30
0.0
 40
3.499999940395355
 41
0.0
 71
     7
 72
     1
  1
30
  7
Textstil7
 73
     1
 44
1.976249933242796
1001
ACAD
1000
MTEXTBEGIN
1070
    73
1070
     1
1070
    44
1040
1.976249933242796
1070
    74
1070
     0
1000
MTEXTEND
  0
MTEXT
  5
17D
330
C5
100
AcDbEntity
  8
Rahmen (ISO)
100
AcDbMText
 10
1085.579291880131
 20
16.10000005960464
 30
0.0
 40
3.499999940395355
 41
0.0
 71
     7
 72
     1
  1
30
  7
Textstil7
 73
     1
 44
1.0
1001
ACAD
1000
MTEXTBEGIN
1070
    73
1070
     1
1070
    44
1040
1.0
1070
    74
1070
     0
1000
MTEXTEND
  0
MTEXT
  5
17E
330
C5
100
AcDbEntity
  8
Rahmen (ISO)
100
AcDbMText
 10
1010.92831775546
 20
1480.4
 30
0.0
 40
3.499999940395355
 41
0.0
 71
     7
 72
     1
  1
31
  7
Textstil7
 73
     1
 44
1.0
1001
ACAD
1000
MTEXTBEGIN
1070
    73
1070
     1
1070
    44
1040
1.0
1070
    74
1070
     0
1000
MTEXTEND
  0
MTEXT
  5
17F
330
C5
100
AcDbEntity
  8
Rahmen (ISO)
100
AcDbMText
 10
1010.92831775546
 20
16.10000005960464
 30
0.0
 40
3.499999940395355
 41
0.0
 71
     7
 72
     1
  1
31
  7
Textstil7
 73
     1
 44
1.0
1001
ACAD
1000
MTEXTBEGIN
1070
    73
1070
     1
1070
    44
1040
1.0
1070
    74
1070
     0
1000
MTEXTEND
  0
MTEXT
  5
180
330
C5
100
AcDbEntity
  8
Rahmen (ISO)
100
AcDbMText
 10
935.5792918801308
 20
1480.4
 30
0.0
 40
3.499999940395355
 41
0.0
 71
     7
 72
     1
  1
32
  7
Textstil7
 73
     1
 44
1.0
1001
ACAD
1000
MTEXTBEGIN
1070
    73
1070
     1
1070
    44
1040
1.0
1070
    74
1070
     0
1000
MTEXTEND
  0
MTEXT
  5
181
330
C5
100
AcDbEntity
  8
Rahmen (ISO)
100
AcDbMText
 10
935.5792918801308
 20
16.10000005960464
 30
0.0
 40
3.499999940395355
 41
0.0
 71
     7
 72
     1
  1
32
  7
Textstil7
 73
     1
 44
1.0
1001
ACAD
1000
MTEXTBEGIN
1070
    73
1070
     1
1070
    44
1040
1.0
1070
    74
1070
     0
1000
MTEXTEND
  0
MTEXT
  5
182
330
C5
100
AcDbEntity
  8
Rahmen (ISO)
100
AcDbMText
 10
860.5792918801308
 20
1480.4
 30
0.0
 40
3.499999940395355
 41
0.0
 71
     7
 72
     1
  1
33
  7
Textstil7
 73
     1
 44
1.0
1001
ACAD
1000
MTEXTBEGIN
1070
    73
1070
     1
1070
    44
1040
1.0
1070
    74
1070
     0
1000
MTEXTEND
  0
MTEXT
  5
183
330
C5
100
AcDbEntity
  8
Rahmen (ISO)
100
AcDbMText
 10
860.5792918801308
 20
16.10000005960464
 30
0.0
 40
3.499999940395355
 41
0.0
 71
     7
 72
     1
  1
33
  7
Textstil7
 73
     1
 44
1.0
1001
ACAD
1000
MTEXTBEGIN
1070
    73
1070
     1
1070
    44
1040
1.0
1070
    74
1070
     0
1000
MTEXTEND
  0
MTEXT
  5
184
330
C5
100
AcDbEntity
  8
Rahmen (ISO)
100
AcDbMText
 10
785.4039672017097
 20
1480.4
 30
0.0
 40
3.499999940395355
 41
0.0
 71
     7
 72
     1
  1
34
  7
Textstil7
 73
     1
 44
1.0
1001
ACAD
1000
MTEXTBEGIN
1070
    73
1070
     1
1070
    44
1040
1.0
1070
    74
1070
     0
1000
MTEXTEND
  0
MTEXT
  5
185
330
C5
100
AcDbEntity
  8
Rahmen (ISO)
100
AcDbMText
 10
785.4039672017097
 20
16.10000005960464
 30
0.0
 40
3.499999940395355
 41
0.0
 71
     7
 72
     1
  1
34
  7
Textstil7
 73
     1
 44
1.0
1001
ACAD
1000
MTEXTBEGIN
1070
    73
1070
     1
1070
    44
1040
1.0
1070
    74
1070
     0
1000
MTEXTEND
  0
MTEXT
  5
186
330
C5
100
AcDbEntity
  8
Rahmen (ISO)
100
AcDbMText
 10
710.5792918801308
 20
1480.4
 30
0.0
 40
3.499999940395355
 41
0.0
 71
     7
 72
     1
  1
35
  7
Textstil7
 73
     1
 44
1.0
1001
ACAD
1000
MTEXTBEGIN
1070
    73
1070
     1
1070
    44
1040
1.0
1070
    74
1070
     0
1000
MTEXTEND
  0
MTEXT
  5
187
330
C5
100
AcDbEntity
  8
Rahmen (ISO)
100
AcDbMText
 10
710.5792918801308
 20
16.10000005960464
 30
0.0
 40
3.499999940395355
 41
0.0
 71
     7
 72
     1
  1
35
  7
Textstil7
 73
     1
 44
1.0
1001
ACAD
1000
MTEXTBEGIN
1070
    73
1070
     1
1070
    44
1040
1.0
1070
    74
1070
     0
1000
MTEXTEND
  0
MTEXT
  5
188
330
C5
100
AcDbEntity
  8
Rahmen (ISO)
100
AcDbMText
 10
635.5792918801308
 20
1480.4
 30
0.0
 40
3.499999940395355
 41
0.0
 71
     7
 72
     1
  1
36
  7
Textstil7
 73
     1
 44
1.0
1001
ACAD
1000
MTEXTBEGIN
1070
    73
1070
     1
1070
    44
1040
1.0
1070
    74
1070
     0
1000
MTEXTEND
  0
MTEXT
  5
189
330
C5
100
AcDbEntity
  8
Rahmen (ISO)
100
AcDbMText
 10
635.5792918801308
 20
16.10000005960464
 30
0.0
 40
3.499999940395355
 41
0.0
 71
     7
 72
     1
  1
36
  7
Textstil7
 73
     1
 44
1.0
1001
ACAD
1000
MTEXTBEGIN
1070
    73
1070
     1
1070
    44
1040
1.0
1070
    74
1070
     0
1000
MTEXTEND
  0
MTEXT
  5
18A
330
C5
100
AcDbEntity
  8
Rahmen (ISO)
100
AcDbMText
 10
560.5792918801308
 20
1480.4
 30
0.0
 40
3.499999940395355
 41
0.0
 71
     7
 72
     1
  1
37
  7
Textstil7
 73
     1
 44
1.0
1001
ACAD
1000
MTEXTBEGIN
1070
    73
1070
     1
1070
    44
1040
1.0
1070
    74
1070
     0
1000
MTEXTEND
  0
MTEXT
  5
18B
330
C5
100
AcDbEntity
  8
Rahmen (ISO)
100
AcDbMText
 10
560.5792918801308
 20
16.10000005960464
 30
0.0
 40
3.499999940395355
 41
0.0
 71
     7
 72
     1
  1
37
  7
Textstil7
 73
     1
 44
1.0
1001
ACAD
1000
MTEXTBEGIN
1070
    73
1070
     1
1070
    44
1040
1.0
1070
    74
1070
     0
1000
MTEXTEND
  0
MTEXT
  5
18C
330
C5
100
AcDbEntity
  8
Rahmen (ISO)
100
AcDbMText
 10
485.5792918801308
 20
1480.4
 30
0.0
 40
3.499999940395355
 41
0.0
 71
     7
 72
     1
  1
38
  7
Textstil7
 73
     1
 44
1.0
1001
ACAD
1000
MTEXTBEGIN
1070
    73
1070
     1
1070
    44
1040
1.0
1070
    74
1070
     0
1000
MTEXTEND
  0
MTEXT
  5
18D
330
C5
100
AcDbEntity
  8
Rahmen (ISO)
100
AcDbMText
 10
485.5792918801308
 20
16.10000005960464
 30
0.0
 40
3.499999940395355
 41
0.0
 71
     7
 72
     1
  1
38
  7
Textstil7
 73
     1
 44
1.0
1001
ACAD
1000
MTEXTBEGIN
1070
    73
1070
     1
1070
    44
1040
1.0
1070
    74
1070
     0
1000
MTEXTEND
  0
MTEXT
  5
18E
330
C5
100
AcDbEntity
  8
Rahmen (ISO)
100
AcDbMText
 10
410.5792918801308
 20
1480.4
 30
0.0
 40
3.499999940395355
 41
0.0
 71
     7
 72
     1
  1
39
  7
Textstil7
 73
     1
 44
1.0
1001
ACAD
1000
MTEXTBEGIN
1070
    73
1070
     1
1070
    44
1040
1.0
1070
    74
1070
     0
1000
MTEXTEND
  0
MTEXT
  5
18F
330
C5
100
AcDbEntity
  8
Rahmen (ISO)
100
AcDbMText
 10
410.5792918801308
 20
16.10000005960464
 30
0.0
 40
3.499999940395355
 41
0.0
 71
     7
 72
     1
  1
39
  7
Textstil7
 73
     1
 44
1.0
1001
ACAD
1000
MTEXTBEGIN
1070
    73
1070
     1
1070
    44
1040
1.0
1070
    74
1070
     0
1000
MTEXTEND
  0
MTEXT
  5
190
330
C5
100
AcDbEntity
  8
Rahmen (ISO)
100
AcDbMText
 10
335.4039672017098
 20
1480.4
 30
0.0
 40
3.499999940395355
 41
0.0
 71
     7
 72
     1
  1
40
  7
Textstil7
 73
     1
 44
1.0
1001
ACAD
1000
MTEXTBEGIN
1070
    73
1070
     1
1070
    44
1040
1.0
1070
    74
1070
     0
1000
MTEXTEND
  0
MTEXT
  5
191
330
C5
100
AcDbEntity
  8
Rahmen (ISO)
100
AcDbMText
 10
335.4039672017098
 20
16.10000005960464
 30
0.0
 40
3.499999940395355
 41
0.0
 71
     7
 72
     1
  1
40
  7
Textstil7
 73
     1
 44
1.0
1001
ACAD
1000
MTEXTBEGIN
1070
    73
1070
     1
1070
    44
1040
1.0
1070
    74
1070
     0
1000
MTEXTEND
  0
MTEXT
  5
192
330
C5
100
AcDbEntity
  8
Rahmen (ISO)
100
AcDbMText
 10
260.7529930770397
 20
1480.4
 30
0.0
 40
3.499999940395355
 41
0.0
 71
     7
 72
     1
  1
41
  7
Textstil7
 73
     1
 44
1.0
1001
ACAD
1000
MTEXTBEGIN
1070
    73
1070
     1
1070
    44
1040
1.0
1070
    74
1070
     0
1000
MTEXTEND
  0
MTEXT
  5
193
330
C5
100
AcDbEntity
  8
Rahmen (ISO)
100
AcDbMText
 10
260.7529930770397
 20
16.10000005960464
 30
0.0
 40
3.499999940395355
 41
0.0
 71
     7
 72
     1
  1
41
  7
Textstil7
 73
     1
 44
1.0
1001
ACAD
1000
MTEXTBEGIN
1070
    73
1070
     1
1070
    44
1040
1.0
1070
    74
1070
     0
1000
MTEXTEND
  0
MTEXT
  5
194
330
C5
100
AcDbEntity
  8
Rahmen (ISO)
100
AcDbMText
 10
185.4039672017096
 20
1480.4
 30
0.0
 40
3.499999940395355
 41
0.0
 71
     7
 72
     1
  1
42
  7
Textstil7
 73
     1
 44
1.0
1001
ACAD
1000
MTEXTBEGIN
1070
    73
1070
     1
1070
    44
1040
1.0
1070
    74
1070
     0
1000
MTEXTEND
  0
MTEXT
  5
195
330
C5
100
AcDbEntity
  8
Rahmen (ISO)
100
AcDbMText
 10
185.4039672017096
 20
16.10000005960464
 30
0.0
 40
3.499999940395355
 41
0.0
 71
     7
 72
     1
  1
42
  7
Textstil7
 73
     1
 44
1.0
1001
ACAD
1000
MTEXTBEGIN
1070
    73
1070
     1
1070
    44
1040
1.0
1070
    74
1070
     0
1000
MTEXTEND
  0
MTEXT
  5
196
330
C5
100
AcDbEntity
  8
Rahmen (ISO)
100
AcDbMText
 10
110.4039672017097
 20
1480.4
 30
0.0
 40
3.499999940395355
 41
0.0
 71
     7
 72
     1
  1
43
  7
Textstil7
 73
     1
 44
1.0
1001
ACAD
1000
MTEXTBEGIN
1070
    73
1070
     1
1070
    44
1040
1.0
1070
    74
1070
     0
1000
MTEXTEND
  0
MTEXT
  5
197
330
C5
100
AcDbEntity
  8
Rahmen (ISO)
100
AcDbMText
 10
110.4039672017097
 20
16.10000005960464
 30
0.0
 40
3.499999940395355
 41
0.0
 71
     7
 72
     1
  1
43
  7
Textstil7
 73
     1
 44
1.0
1001
ACAD
1000
MTEXTBEGIN
1070
    73
1070
     1
1070
    44
1040
1.0
1070
    74
1070
     0
1000
MTEXTEND
  0
MTEXT
  5
198
330
C5
100
AcDbEntity
  8
Rahmen (ISO)
100
AcDbMText
 10
35.22864252328873
 20
1480.4
 30
0.0
 40
3.499999940395355
 41
0.0
 71
     7
 72
     1
  1
44
  7
Textstil7
 73
     1
 44
1.0
1001
ACAD
1000
MTEXTBEGIN
1070
    73
1070
     1
1070
    44
1040
1.0
1070
    74
1070
     0
1000
MTEXTEND
  0
MTEXT
  5
199
330
C5
100
AcDbEntity
  8
Rahmen (ISO)
100
AcDbMText
 10
35.22864252328873
 20
16.10000005960464
 30
0.0
 40
3.499999940395355
 41
0.0
 71
     7
 72
     1
  1
44
  7
Textstil7
 73
     1
 44
3.539531230926513
1001
ACAD
1000
MTEXTBEGIN
1070
    73
1070
     1
1070
    44
1040
3.539531230926513
1070
    74
1070
     0
1000
MTEXTEND
  0
LINE
  5
19A
330
C5
100
AcDbEntity
  8
Rahmen (ISO)
100
AcDbLine
 10
20.0
 20
75.0
 30
0.0
 11
16.10000014305114
 21
75.0
 31
0.0
  0
LINE
  5
19B
330
C5
100
AcDbEntity
  8
Rahmen (ISO)
100
AcDbLine
 10
3280.0
 20
75.0
 30
0.0
 11
3283.900146484375
 21
75.0
 31
0.0
  0
LINE
  5
19C
330
C5
100
AcDbEntity
  8
Rahmen (ISO)
100
AcDbLine
 10
20.0
 20
150.0
 30
0.0
 11
16.10000014305114
 21
150.0
 31
0.0
  0
LINE
  5
19D
330
C5
100
AcDbEntity
  8
Rahmen (ISO)
100
AcDbLine
 10
3280.0
 20
150.0
 30
0.0
 11
3283.900146484375
 21
150.0
 31
0.0
  0
LINE
  5
19E
330
C5
100
AcDbEntity
  8
Rahmen (ISO)
100
AcDbLine
 10
20.0
 20
225.0
 30
0.0
 11
16.10000014305114
 21
225.0
 31
0.0
  0
LINE
  5
19F
330
C5
100
AcDbEntity
  8
Rahmen (ISO)
100
AcDbLine
 10
3280.0
 20
225.0
 30
0.0
 11
3283.900146484375
 21
225.0
 31
0.0
  0
LINE
  5
1A0
330
C5
100
AcDbEntity
  8
Rahmen (ISO)
100
AcDbLine
 10
20.0
 20
300.0
 30
0.0
 11
16.10000014305114
 21
300.0
 31
0.0
  0
LINE
  5
1A1
330
C5
100
AcDbEntity
  8
Rahmen (ISO)
100
AcDbLine
 10
3280.0
 20
300.0
 30
0.0
 11
3283.900146484375
 21
300.0
 31
0.0
  0
LINE
  5
1A2
330
C5
100
AcDbEntity
  8
Rahmen (ISO)
100
AcDbLine
 10
20.0
 20
375.0
 30
0.0
 11
16.10000014305114
 21
375.0
 31
0.0
  0
LINE
  5
1A3
330
C5
100
AcDbEntity
  8
Rahmen (ISO)
100
AcDbLine
 10
3280.0
 20
375.0
 30
0.0
 11
3283.900146484375
 21
375.0
 31
0.0
  0
LINE
  5
1A4
330
C5
100
AcDbEntity
  8
Rahmen (ISO)
100
AcDbLine
 10
20.0
 20
450.0
 30
0.0
 11
16.10000014305114
 21
450.0
 31
0.0
  0
LINE
  5
1A5
330
C5
100
AcDbEntity
  8
Rahmen (ISO)
100
AcDbLine
 10
3280.0
 20
450.0
 30
0.0
 11
3283.900146484375
 21
450.0
 31
0.0
  0
LINE
  5
1A6
330
C5
100
AcDbEntity
  8
Rahmen (ISO)
100
AcDbLine
 10
20.0
 20
525.0
 30
0.0
 11
16.10000014305114
 21
525.0
 31
0.0
  0
LINE
  5
1A7
330
C5
100
AcDbEntity
  8
Rahmen (ISO)
100
AcDbLine
 10
3280.0
 20
525.0
 30
0.0
 11
3283.900146484375
 21
525.0
 31
0.0
  0
LINE
  5
1A8
330
C5
100
AcDbEntity
  8
Rahmen (ISO)
100
AcDbLine
 10
20.0
 20
600.0
 30
0.0
 11
16.10000014305114
 21
600.0
 31
0.0
  0
LINE
  5
1A9
330
C5
100
AcDbEntity
  8
Rahmen (ISO)
100
AcDbLine
 10
3280.0
 20
600.0
 30
0.0
 11
3283.900146484375
 21
600.0
 31
0.0
  0
LINE
  5
1AA
330
C5
100
AcDbEntity
  8
Rahmen (ISO)
100
AcDbLine
 10
20.0
 20
675.0
 30
0.0
 11
16.10000014305114
 21
675.0
 31
0.0
  0
LINE
  5
1AB
330
C5
100
AcDbEntity
  8
Rahmen (ISO)
100
AcDbLine
 10
3280.0
 20
675.0
 30
0.0
 11
3283.900146484375
 21
675.0
 31
0.0
  0
LINE
  5
1AC
330
C5
100
AcDbEntity
  8
Rahmen (ISO)
100
AcDbLine
 10
20.0
 20
825.0
 30
0.0
 11
16.10000014305114
 21
825.0
 31
0.0
  0
LINE
  5
1AD
330
C5
100
AcDbEntity
  8
Rahmen (ISO)
100
AcDbLine
 10
3280.0
 20
825.0
 30
0.0
 11
3283.900146484375
 21
825.0
 31
0.0
  0
LINE
  5
1AE
330
C5
100
AcDbEntity
  8
Rahmen (ISO)
100
AcDbLine
 10
20.0
 20
900.0
 30
0.0
 11
16.10000014305114
 21
900.0
 31
0.0
  0
LINE
  5
1AF
330
C5
100
AcDbEntity
  8
Rahmen (ISO)
100
AcDbLine
 10
3280.0
 20
900.0
 30
0.0
 11
3283.900146484375
 21
900.0
 31
0.0
  0
LINE
  5
1B0
330
C5
100
AcDbEntity
  8
Rahmen (ISO)
100
AcDbLine
 10
20.0
 20
975.0
 30
0.0
 11
16.10000014305114
 21
975.0
 31
0.0
  0
LINE
  5
1B1
330
C5
100
AcDbEntity
  8
Rahmen (ISO)
100
AcDbLine
 10
3280.0
 20
975.0
 30
0.0
 11
3283.900146484375
 21
975.0
 31
0.0
  0
LINE
  5
1B2
330
C5
100
AcDbEntity
  8
Rahmen (ISO)
100
AcDbLine
 10
20.0
 20
1050.0
 30
0.0
 11
16.10000014305114
 21
1050.0
 31
0.0
  0
LINE
  5
1B3
330
C5
100
AcDbEntity
  8
Rahmen (ISO)
100
AcDbLine
 10
3280.0
 20
1050.0
 30
0.0
 11
3283.900146484375
 21
1050.0
 31
0.0
  0
LINE
  5
1B4
330
C5
100
AcDbEntity
  8
Rahmen (ISO)
100
AcDbLine
 10
20.0
 20
1125.0
 30
0.0
 11
16.10000014305114
 21
1125.0
 31
0.0
  0
LINE
  5
1B5
330
C5
100
AcDbEntity
  8
Rahmen (ISO)
100
AcDbLine
 10
3280.0
 20
1125.0
 30
0.0
 11
3283.900146484375
 21
1125.0
 31
0.0
  0
LINE
  5
1B6
330
C5
100
AcDbEntity
  8
Rahmen (ISO)
100
AcDbLine
 10
20.0
 20
1200.0
 30
0.0
 11
16.10000014305114
 21
1200.0
 31
0.0
  0
LINE
  5
1B7
330
C5
100
AcDbEntity
  8
Rahmen (ISO)
100
AcDbLine
 10
3280.0
 20
1200.0
 30
0.0
 11
3283.900146484375
 21
1200.0
 31
0.0
  0
LINE
  5
1B8
330
C5
100
AcDbEntity
  8
Rahmen (ISO)
100
AcDbLine
 10
20.0
 20
1275.0
 30
0.0
 11
16.10000014305114
 21
1275.0
 31
0.0
  0
LINE
  5
1B9
330
C5
100
AcDbEntity
  8
Rahmen (ISO)
100
AcDbLine
 10
3280.0
 20
1275.0
 30
0.0
 11
3283.900146484375
 21
1275.0
 31
0.0
  0
LINE
  5
1BA
330
C5
100
AcDbEntity
  8
Rahmen (ISO)
100
AcDbLine
 10
20.0
 20
1350.0
 30
0.0
 11
16.10000014305114
 21
1350.0
 31
0.0
  0
LINE
  5
1BB
330
C5
100
AcDbEntity
  8
Rahmen (ISO)
100
AcDbLine
 10
3280.0
 20
1350.0
 30
0.0
 11
3283.900146484375
 21
1350.0
 31
0.0
  0
LINE
  5
1BC
330
C5
100
AcDbEntity
  8
Rahmen (ISO)
100
AcDbLine
 10
20.0
 20
1425.0
 30
0.0
 11
16.10000014305114
 21
1425.0
 31
0.0
  0
LINE
  5
1BD
330
C5
100
AcDbEntity
  8
Rahmen (ISO)
100
AcDbLine
 10
3280.0
 20
1425.0
 30
0.0
 11
3283.900146484375
 21
1425.0
 31
0.0
  0
MTEXT
  5
1BE
330
C5
100
AcDbEntity
  8
Rahmen (ISO)
100
AcDbMText
 10
16.80266848802566
 20
35.75000002980232
 30
0.0
 40
3.499999940395355
 41
0.0
 71
     7
 72
     1
  1
A
  7
Textstil7
 73
     1
 44
1.0
1001
ACAD
1000
MTEXTBEGIN
1070
    73
1070
     1
1070
    44
1040
1.0
1070
    74
1070
     0
1000
MTEXTEND
  0
MTEXT
  5
1BF
330
C5
100
AcDbEntity
  8
Rahmen (ISO)
100
AcDbMText
 10
3281.102668428423
 20
35.75000002980232
 30
0.0
 40
3.499999940395355
 41
0.0
 71
     7
 72
     1
  1
A
  7
Textstil7
 73
     1
 44
1.0
1001
ACAD
1000
MTEXTBEGIN
1070
    73
1070
     1
1070
    44
1040
1.0
1070
    74
1070
     0
1000
MTEXTEND
  0
MTEXT
  5
1C0
330
C5
100
AcDbEntity
  8
Rahmen (ISO)
100
AcDbMText
 10
16.97799316644668
 20
110.7500000298023
 30
0.0
 40
3.499999940395355
 41
0.0
 71
     7
 72
     1
  1
B
  7
Textstil7
 73
     1
 44
1.0
1001
ACAD
1000
MTEXTBEGIN
1070
    73
1070
     1
1070
    44
1040
1.0
1070
    74
1070
     0
1000
MTEXTEND
  0
MTEXT
  5
1C1
330
C5
100
AcDbEntity
  8
Rahmen (ISO)
100
AcDbMText
 10
3281.277993106842
 20
110.7500000298023
 30
0.0
 40
3.499999940395355
 41
0.0
 71
     7
 72
     1
  1
B
  7
Textstil7
 73
     1
 44
1.0
1001
ACAD
1000
MTEXTBEGIN
1070
    73
1070
     1
1070
    44
1040
1.0
1070
    74
1070
     0
1000
MTEXTEND
  0
MTEXT
  5
1C2
330
C5
100
AcDbEntity
  8
Rahmen (ISO)
100
AcDbMText
 10
17.15331784486771
 20
185.7500000298023
 30
0.0
 40
3.499999940395355
 41
0.0
 71
     7
 72
     1
  1
C
  7
Textstil7
 73
     1
 44
1.0
1001
ACAD
1000
MTEXTBEGIN
1070
    73
1070
     1
1070
    44
1040
1.0
1070
    74
1070
     0
1000
MTEXTEND
  0
MTEXT
  5
1C3
330
C5
100
AcDbEntity
  8
Rahmen (ISO)
100
AcDbMText
 10
3281.453317785263
 20
185.7500000298023
 30
0.0
 40
3.499999940395355
 41
0.0
 71
     7
 72
     1
  1
C
  7
Textstil7
 73
     1
 44
1.0
1001
ACAD
1000
MTEXTBEGIN
1070
    73
1070
     1
1070
    44
1040
1.0
1070
    74
1070
     0
1000
MTEXTEND
  0
MTEXT
  5
1C4
330
C5
100
AcDbEntity
  8
Rahmen (ISO)
100
AcDbMText
 10
16.97799316644668
 20
260.7500000298023
 30
0.0
 40
3.499999940395355
 41
0.0
 71
     7
 72
     1
  1
D
  7
Textstil7
 73
     1
 44
1.0
1001
ACAD
1000
MTEXTBEGIN
1070
    73
1070
     1
1070
    44
1040
1.0
1070
    74
1070
     0
1000
MTEXTEND
  0
MTEXT
  5
1C5
330
C5
100
AcDbEntity
  8
Rahmen (ISO)
100
AcDbMText
 10
3281.277993106842
 20
260.7500000298023
 30
0.0
 40
3.499999940395355
 41
0.0
 71
     7
 72
     1
  1
D
  7
Textstil7
 73
     1
 44
1.0
1001
ACAD
1000
MTEXTBEGIN
1070
    73
1070
     1
1070
    44
1040
1.0
1070
    74
1070
     0
1000
MTEXTEND
  0
MTEXT
  5
1C6
330
C5
100
AcDbEntity
  8
Rahmen (ISO)
100
AcDbMText
 10
17.15331784486771
 20
335.7500000298023
 30
0.0
 40
3.499999940395355
 41
0.0
 71
     7
 72
     1
  1
E
  7
Textstil7
 73
     1
 44
1.0
1001
ACAD
1000
MTEXTBEGIN
1070
    73
1070
     1
1070
    44
1040
1.0
1070
    74
1070
     0
1000
MTEXTEND
  0
MTEXT
  5
1C7
330
C5
100
AcDbEntity
  8
Rahmen (ISO)
100
AcDbMText
 10
3281.453317785263
 20
335.7500000298023
 30
0.0
 40
3.499999940395355
 41
0.0
 71
     7
 72
     1
  1
E
  7
Textstil7
 73
     1
 44
1.0
1001
ACAD
1000
MTEXTBEGIN
1070
    73
1070
     1
1070
    44
1040
1.0
1070
    74
1070
     0
1000
MTEXTEND
  0
MTEXT
  5
1C8
330
C5
100
AcDbEntity
  8
Rahmen (ISO)
100
AcDbMText
 10
17.15331784486771
 20
410.7500000298021
 30
0.0
 40
3.499999940395355
 41
0.0
 71
     7
 72
     1
  1
F
  7
Textstil7
 73
     1
 44
1.0
1001
ACAD
1000
MTEXTBEGIN
1070
    73
1070
     1
1070
    44
1040
1.0
1070
    74
1070
     0
1000
MTEXTEND
  0
MTEXT
  5
1C9
330
C5
100
AcDbEntity
  8
Rahmen (ISO)
100
AcDbMText
 10
3281.453317785263
 20
410.7500000298021
 30
0.0
 40
3.499999940395355
 41
0.0
 71
     7
 72
     1
  1
F
  7
Textstil7
 73
     1
 44
1.0
1001
ACAD
1000
MTEXTBEGIN
1070
    73
1070
     1
1070
    44
1040
1.0
1070
    74
1070
     0
1000
MTEXTEND
  0
MTEXT
  5
1CA
330
C5
100
AcDbEntity
  8
Rahmen (ISO)
100
AcDbMText
 10
16.97799316644668
 20
485.7500000298023
 30
0.0
 40
3.499999940395355
 41
0.0
 71
     7
 72
     1
  1
G
  7
Textstil7
 73
     1
 44
1.0
1001
ACAD
1000
MTEXTBEGIN
1070
    73
1070
     1
1070
    44
1040
1.0
1070
    74
1070
     0
1000
MTEXTEND
  0
MTEXT
  5
1CB
330
C5
100
AcDbEntity
  8
Rahmen (ISO)
100
AcDbMText
 10
3281.277993106842
 20
485.7500000298023
 30
0.0
 40
3.499999940395355
 41
0.0
 71
     7
 72
     1
  1
G
  7
Textstil7
 73
     1
 44
1.0
1001
ACAD
1000
MTEXTBEGIN
1070
    73
1070
     1
1070
    44
1040
1.0
1070
    74
1070
     0
1000
MTEXTEND
  0
MTEXT
  5
1CC
330
C5
100
AcDbEntity
  8
Rahmen (ISO)
100
AcDbMText
 10
16.97799316644668
 20
560.7500000298023
 30
0.0
 40
3.499999940395355
 41
0.0
 71
     7
 72
     1
  1
H
  7
Textstil7
 73
     1
 44
1.0
1001
ACAD
1000
MTEXTBEGIN
1070
    73
1070
     1
1070
    44
1040
1.0
1070
    74
1070
     0
1000
MTEXTEND
  0
MTEXT
  5
1CD
330
C5
100
AcDbEntity
  8
Rahmen (ISO)
100
AcDbMText
 10
3281.277993106842
 20
560.7500000298023
 30
0.0
 40
3.499999940395355
 41
0.0
 71
     7
 72
     1
  1
H
  7
Textstil7
 73
     1
 44
1.0
1001
ACAD
1000
MTEXTBEGIN
1070
    73
1070
     1
1070
    44
1040
1.0
1070
    74
1070
     0
1000
MTEXTEND
  0
MTEXT
  5
1CE
330
C5
100
AcDbEntity
  8
Rahmen (ISO)
100
AcDbMText
 10
17.85299315154552
 20
635.7500000298021
 30
0.0
 40
3.499999940395355
 41
0.0
 71
     7
 72
     1
  1
I
  7
Textstil7
 73
     1
 44
1.0
1001
ACAD
1000
MTEXTBEGIN
1070
    73
1070
     1
1070
    44
1040
1.0
1070
    74
1070
     0
1000
MTEXTEND
  0
MTEXT
  5
1CF
330
C5
100
AcDbEntity
  8
Rahmen (ISO)
100
AcDbMText
 10
3282.152993091941
 20
635.7500000298021
 30
0.0
 40
3.499999940395355
 41
0.0
 71
     7
 72
     1
  1
I
  7
Textstil7
 73
     1
 44
1.0
1001
ACAD
1000
MTEXTBEGIN
1070
    73
1070
     1
1070
    44
1040
1.0
1070
    74
1070
     0
1000
MTEXTEND
  0
MTEXT
  5
1D0
330
C5
100
AcDbEntity
  8
Rahmen (ISO)
100
AcDbMText
 10
17.32701911628246
 20
710.7500000298021
 30
0.0
 40
3.499999940395355
 41
0.0
 71
     7
 72
     1
  1
J
  7
Textstil7
 73
     1
 44
1.0
1001
ACAD
1000
MTEXTBEGIN
1070
    73
1070
     1
1070
    44
1040
1.0
1070
    74
1070
     0
1000
MTEXTEND
  0
MTEXT
  5
1D1
330
C5
100
AcDbEntity
  8
Rahmen (ISO)
100
AcDbMText
 10
3281.627019056678
 20
710.7500000298021
 30
0.0
 40
3.499999940395355
 41
0.0
 71
     7
 72
     1
  1
J
  7
Textstil7
 73
     1
 44
1.0
1001
ACAD
1000
MTEXTBEGIN
1070
    73
1070
     1
1070
    44
1040
1.0
1070
    74
1070
     0
1000
MTEXTEND
  0
MTEXT
  5
1D2
330
C5
100
AcDbEntity
  8
Rahmen (ISO)
100
AcDbMText
 10
16.97799316644668
 20
785.7500000298021
 30
0.0
 40
3.499999940395355
 41
0.0
 71
     7
 72
     1
  1
K
  7
Textstil7
 73
     1
 44
1.0
1001
ACAD
1000
MTEXTBEGIN
1070
    73
1070
     1
1070
    44
1040
1.0
1070
    74
1070
     0
1000
MTEXTEND
  0
MTEXT
  5
1D3
330
C5
100
AcDbEntity
  8
Rahmen (ISO)
100
AcDbMText
 10
3281.277993106842
 20
785.7500000298021
 30
0.0
 40
3.499999940395355
 41
0.0
 71
     7
 72
     1
  1
K
  7
Textstil7
 73
     1
 44
1.0
1001
ACAD
1000
MTEXTBEGIN
1070
    73
1070
     1
1070
    44
1040
1.0
1070
    74
1070
     0
1000
MTEXTEND
  0
MTEXT
  5
1D4
330
C5
100
AcDbEntity
  8
Rahmen (ISO)
100
AcDbMText
 10
17.15331784486771
 20
860.7500000298022
 30
0.0
 40
3.499999940395355
 41
0.0
 71
     7
 72
     1
  1
L
  7
Textstil7
 73
     1
 44
1.0
1001
ACAD
1000
MTEXTBEGIN
1070
    73
1070
     1
1070
    44
1040
1.0
1070
    74
1070
     0
1000
MTEXTEND
  0
MTEXT
  5
1D5
330
C5
100
AcDbEntity
  8
Rahmen (ISO)
100
AcDbMText
 10
3281.453317785263
 20
860.7500000298022
 30
0.0
 40
3.499999940395355
 41
0.0
 71
     7
 72
     1
  1
L
  7
Textstil7
 73
     1
 44
1.0
1001
ACAD
1000
MTEXTBEGIN
1070
    73
1070
     1
1070
    44
1040
1.0
1070
    74
1070
     0
1000
MTEXTEND
  0
MTEXT
  5
1D6
330
C5
100
AcDbEntity
  8
Rahmen (ISO)
100
AcDbMText
 10
16.80266848802566
 20
935.7500000298022
 30
0.0
 40
3.499999940395355
 41
0.0
 71
     7
 72
     1
  1
M
  7
Textstil7
 73
     1
 44
1.0
1001
ACAD
1000
MTEXTBEGIN
1070
    73
1070
     1
1070
    44
1040
1.0
1070
    74
1070
     0
1000
MTEXTEND
  0
MTEXT
  5
1D7
330
C5
100
AcDbEntity
  8
Rahmen (ISO)
100
AcDbMText
 10
3281.102668428423
 20
935.7500000298022
 30
0.0
 40
3.499999940395355
 41
0.0
 71
     7
 72
     1
  1
M
  7
Textstil7
 73
     1
 44
3.366308450698852
1001
ACAD
1000
MTEXTBEGIN
1070
    73
1070
     1
1070
    44
1040
3.366308450698852
1070
    74
1070
     0
1000
MTEXTEND
  0
MTEXT
  5
1D8
330
C5
100
AcDbEntity
  8
Rahmen (ISO)
100
AcDbMText
 10
16.97799316644668
 20
1010.750000029802
 30
0.0
 40
3.499999940395355
 41
0.0
 71
     7
 72
     1
  1
N
  7
Textstil7
 73
     1
 44
1.0
1001
ACAD
1000
MTEXTBEGIN
1070
    73
1070
     1
1070
    44
1040
1.0
1070
    74
1070
     0
1000
MTEXTEND
  0
MTEXT
  5
1D9
330
C5
100
AcDbEntity
  8
Rahmen (ISO)
100
AcDbMText
 10
3281.277993106842
 20
1010.750000029802
 30
0.0
 40
3.499999940395355
 41
0.0
 71
     7
 72
     1
  1
N
  7
Textstil7
 73
     1
 44
1.0
1001
ACAD
1000
MTEXTBEGIN
1070
    73
1070
     1
1070
    44
1040
1.0
1070
    74
1070
     0
1000
MTEXTEND
  0
MTEXT
  5
1DA
330
C5
100
AcDbEntity
  8
Rahmen (ISO)
100
AcDbMText
 10
16.97799316644668
 20
1085.750000029802
 30
0.0
 40
3.499999940395355
 41
0.0
 71
     7
 72
     1
  1
O
  7
Textstil7
 73
     1
 44
1.0
1001
ACAD
1000
MTEXTBEGIN
1070
    73
1070
     1
1070
    44
1040
1.0
1070
    74
1070
     0
1000
MTEXTEND
  0
MTEXT
  5
1DB
330
C5
100
AcDbEntity
  8
Rahmen (ISO)
100
AcDbMText
 10
3281.277993106842
 20
1085.750000029802
 30
0.0
 40
3.499999940395355
 41
0.0
 71
     7
 72
     1
  1
O
  7
Textstil7
 73
     1
 44
1.0
1001
ACAD
1000
MTEXTBEGIN
1070
    73
1070
     1
1070
    44
1040
1.0
1070
    74
1070
     0
1000
MTEXTEND
  0
MTEXT
  5
1DC
330
C5
100
AcDbEntity
  8
Rahmen (ISO)
100
AcDbMText
 10
16.97799316644668
 20
1160.750000029802
 30
0.0
 40
3.499999940395355
 41
0.0
 71
     7
 72
     1
  1
P
  7
Textstil7
 73
     1
 44
1.0
1001
ACAD
1000
MTEXTBEGIN
1070
    73
1070
     1
1070
    44
1040
1.0
1070
    74
1070
     0
1000
MTEXTEND
  0
MTEXT
  5
1DD
330
C5
100
AcDbEntity
  8
Rahmen (ISO)
100
AcDbMText
 10
3281.277993106842
 20
1160.750000029802
 30
0.0
 40
3.499999940395355
 41
0.0
 71
     7
 72
     1
  1
P
  7
Textstil7
 73
     1
 44
1.0
1001
ACAD
1000
MTEXTBEGIN
1070
    73
1070
     1
1070
    44
1040
1.0
1070
    74
1070
     0
1000
MTEXTEND
  0
MTEXT
  5
1DE
330
C5
100
AcDbEntity
  8
Rahmen (ISO)
100
AcDbMText
 10
16.97799316644668
 20
1235.750000029802
 30
0.0
 40
3.499999940395355
 41
0.0
 71
     7
 72
     1
  1
Q
  7
Textstil7
 73
     1
 44
1.0
1001
ACAD
1000
MTEXTBEGIN
1070
    73
1070
     1
1070
    44
1040
1.0
1070
    74
1070
     0
1000
MTEXTEND
  0
MTEXT
  5
1DF
330
C5
100
AcDbEntity
  8
Rahmen (ISO)
100
AcDbMText
 10
3281.277993106842
 20
1235.750000029802
 30
0.0
 40
3.499999940395355
 41
0.0
 71
     7
 72
     1
  1
Q
  7
Textstil7
 73
     1
 44
1.0
1001
ACAD
1000
MTEXTBEGIN
1070
    73
1070
     1
1070
    44
1040
1.0
1070
    74
1070
     0
1000
MTEXTEND
  0
MTEXT
  5
1E0
330
C5
100
AcDbEntity
  8
Rahmen (ISO)
100
AcDbMText
 10
16.97799316644668
 20
1310.750000029802
 30
0.0
 40
3.499999940395355
 41
0.0
 71
     7
 72
     1
  1
R
  7
Textstil7
 73
     1
 44
1.0
1001
ACAD
1000
MTEXTBEGIN
1070
    73
1070
     1
1070
    44
1040
1.0
1070
    74
1070
     0
1000
MTEXTEND
  0
MTEXT
  5
1E1
330
C5
100
AcDbEntity
  8
Rahmen (ISO)
100
AcDbMText
 10
3281.277993106842
 20
1310.750000029802
 30
0.0
 40
3.499999940395355
 41
0.0
 71
     7
 72
     1
  1
R
  7
Textstil7
 73
     1
 44
1.0
1001
ACAD
1000
MTEXTBEGIN
1070
    73
1070
     1
1070
    44
1040
1.0
1070
    74
1070
     0
1000
MTEXTEND
  0
MTEXT
  5
1E2
330
C5
100
AcDbEntity
  8
Rahmen (ISO)
100
AcDbMText
 10
16.97799316644668
 20
1385.750000029802
 30
0.0
 40
3.499999940395355
 41
0.0
 71
     7
 72
     1
  1
S
  7
Textstil7
 73
     1
 44
1.0
1001
ACAD
1000
MTEXTBEGIN
1070
    73
1070
     1
1070
    44
1040
1.0
1070
    74
1070
     0
1000
MTEXTEND
  0
MTEXT
  5
1E3
330
C5
100
AcDbEntity
  8
Rahmen (ISO)
100
AcDbMText
 10
3281.277993106842
 20
1385.750000029802
 30
0.0
 40
3.499999940395355
 41
0.0
 71
     7
 72
     1
  1
S
  7
Textstil7
 73
     1
 44
1.0
1001
ACAD
1000
MTEXTBEGIN
1070
    73
1070
     1
1070
    44
1040
1.0
1070
    74
1070
     0
1000
MTEXTEND
  0
MTEXT
  5
1E4
330
C5
100
AcDbEntity
  8
Rahmen (ISO)
100
AcDbMText
 10
16.97799316644668
 20
1460.750000029802
 30
0.0
 40
3.499999940395355
 41
0.0
 71
     7
 72
     1
  1
T
  7
Textstil7
 73
     1
 44
1.0
1001
ACAD
1000
MTEXTBEGIN
1070
    73
1070
     1
1070
    44
1040
1.0
1070
    74
1070
     0
1000
MTEXTEND
  0
MTEXT
  5
1E5
330
C5
100
AcDbEntity
  8
Rahmen (ISO)
100
AcDbMText
 10
3281.277993106842
 20
1460.750000029802
 30
0.0
 40
3.499999940395355
 41
0.0
 71
     7
 72
     1
  1
T
  7
Textstil7
 73
     1
 44
1.0
1001
ACAD
1000
MTEXTBEGIN
1070
    73
1070
     1
1070
    44
1040
1.0
1070
    74
1070
     0
1000
MTEXTEND
  0
ENDBLK
  5
C7
330
C5
100
AcDbEntity
  8
0
100
AcDbBlockEnd
  0
BLOCK
  5
1E8
330
1E7
100
AcDbEntity
  8
0
100
AcDbBlockBegin
  2
Schriftfelder großes schriftfeld
 70
     2
 10
0.0
 20
0.0
 30
0.0
  3
Schriftfelder großes schriftfeld
  1

  0
LINE
  5
1EA
330
1E7
100
AcDbEntity
  8
Titel (ISO)
100
AcDbLine
 10
98.40092059607565
 20
99.828060382812
 30
0.0
 11
288.4009205960757
 21
99.82806038281204
 31
0.0
  0
LINE
  5
1EB
330
1E7
100
AcDbEntity
  8
Titel (ISO)
100
AcDbLine
 10
288.4009205960757
 20
99.82806038281204
 30
0.0
 11
288.4009205960757
 21
155.078060382812
 31
0.0
  0
LINE
  5
1EC
330
1E7
100
AcDbEntity
  8
Titel (ISO)
100
AcDbLine
 10
288.4009205960757
 20
155.078060382812
 30
0.0
 11
98.40092059607565
 21
155.078060382812
 31
0.0
  0
LINE
  5
1ED
330
1E7
100
AcDbEntity
  8
Titel (ISO)
100
AcDbLine
 10
98.40092059607565
 20
155.078060382812
 30
0.0
 11
98.40092059607565
 21
99.828060382812
 31
0.0
  0
LINE
  5
1EE
330
1E7
100
AcDbEntity
  8
Titel (ISO)
100
AcDbLine
 10
153.0009205960757
 20
99.828060382812
 30
0.0
 11
153.0009205960756
 21
155.078060382812
 31
0.0
  0
LINE
  5
1EF
330
1E7
100
AcDbEntity
  8
Titel (ISO)
100
AcDbLine
 10
197.2009205960756
 20
99.828060382812
 30
0.0
 11
197.2009205960756
 21
155.078060382812
 31
0.0
  0
LINE
  5
1F0
330
1E7
100
AcDbEntity
  8
Titel (ISO)
100
AcDbLine
 10
98.40092059607565
 20
138.078060382812
 30
0.0
 11
288.4009205960757
 21
138.0780603828121
 31
0.0
  0
LINE
  5
1F1
330
1E7
100
AcDbEntity
  8
Titel (ISO)
100
AcDbLine
 10
153.0009205960757
 20
116.828060382812
 30
0.0
 11
288.4009205960757
 21
116.8280603828121
 31
0.0
  0
LINE
  5
1F2
330
1E7
100
AcDbEntity
  8
Titel (ISO)
100
AcDbLine
 10
197.2009205960756
 20
148.328060382812
 30
0.0
 11
288.4009205960757
 21
148.328060382812
 31
0.0
  0
LINE
  5
1F3
330
1E7
100
AcDbEntity
  8
Titel (ISO)
100
AcDbLine
 10
250.8
 20
148.328060382812
 30
0.0
 11
250.8
 21
155.078060382812
 31
0.0
  0
LINE
  5
1F4
330
1E7
100
AcDbEntity
  8
Titel (ISO)
100
AcDbLine
 10
98.4009205960757
 20
104.078060382812
 30
0.0
 11
153.0009205960757
 21
104.078060382812
 31
0.0
  0
LINE
  5
1F5
330
1E7
100
AcDbEntity
  8
Titel (ISO)
100
AcDbLine
 10
153.0009205960757
 20
104.078060382812
 30
0.0
 11
197.2009205960756
 21
104.078060382812
 31
0.0
  0
LINE
  5
1F6
330
1E7
100
AcDbEntity
  8
Titel (ISO)
100
AcDbLine
 10
197.2009205960756
 20
104.078060382812
 30
0.0
 11
288.4009205960757
 21
104.078060382812
 31
0.0
  0
LINE
  5
1F7
330
1E7
100
AcDbEntity
  8
Titel (ISO)
100
AcDbLine
 10
242.8009205960757
 20
99.828060382812
 30
0.0
 11
242.8009205960757
 21
104.078060382812
 31
0.0
  0
LINE
  5
1F8
330
1E7
100
AcDbEntity
  8
Titel (ISO)
100
AcDbLine
 10
272.6009205960756
 20
104.078060382812
 30
0.0
 11
272.6009205960756
 21
116.8280603828121
 31
0.0
  0
LINE
  5
1F9
330
1E7
100
AcDbEntity
  8
Titel (ISO)
100
AcDbLine
 10
272.6009205960756
 20
108.2190860238377
 30
0.0
 11
288.4009205960757
 21
108.2190860238377
 31
0.0
  0
LINE
  5
1FA
330
1E7
100
AcDbEntity
  8
Titel (ISO)
100
AcDbLine
 10
153.0009205960757
 20
108.328060382812
 30
0.0
 11
98.40092059607565
 21
108.328060382812
 31
0.0
  0
LINE
  5
1FB
330
1E7
100
AcDbEntity
  8
Titel (ISO)
100
AcDbLine
 10
98.40092059607565
 20
112.578060382812
 30
0.0
 11
153.0009205960757
 21
112.578060382812
 31
0.0
  0
LINE
  5
1FC
330
1E7
100
AcDbEntity
  8
Titel (ISO)
100
AcDbLine
 10
98.40092059607565
 20
116.828060382812
 30
0.0
 11
153.0009205960757
 21
116.828060382812
 31
0.0
  0
LINE
  5
1FD
330
1E7
100
AcDbEntity
  8
Titel (ISO)
100
AcDbLine
 10
98.40092059607565
 20
121.078060382812
 30
0.0
 11
153.0009205960757
 21
121.078060382812
 31
0.0
  0
LINE
  5
1FE
330
1E7
100
AcDbEntity
  8
Titel (ISO)
100
AcDbLine
 10
153.0009205960757
 20
121.078060382812
 30
0.0
 11
197.2009205960756
 21
121.0780603828121
 31
0.0
  0
LINE
  5
1FF
330
1E7
100
AcDbEntity
  8
Titel (ISO)
100
AcDbLine
 10
98.40092059607565
 20
125.328060382812
 30
0.0
 11
153.0009205960757
 21
125.3280603828121
 31
0.0
  0
LINE
  5
200
330
1E7
100
AcDbEntity
  8
Titel (ISO)
100
AcDbLine
 10
153.0009205960757
 20
125.3280603828121
 30
0.0
 11
197.2009205960756
 21
125.3280603828121
 31
0.0
  0
LINE
  5
201
330
1E7
100
AcDbEntity
  8
Titel (ISO)
100
AcDbLine
 10
98.40092059607565
 20
129.578060382812
 30
0.0
 11
153.0009205960757
 21
129.578060382812
 31
0.0
  0
LINE
  5
202
330
1E7
100
AcDbEntity
  8
Titel (ISO)
100
AcDbLine
 10
153.0009205960757
 20
129.578060382812
 30
0.0
 11
197.2009205960756
 21
129.578060382812
 31
0.0
  0
LINE
  5
203
330
1E7
100
AcDbEntity
  8
Titel (ISO)
100
AcDbLine
 10
98.40092059607565
 20
133.828060382812
 30
0.0
 11
153.0009205960757
 21
133.828060382812
 31
0.0
  0
LINE
  5
204
330
1E7
100
AcDbEntity
  8
Titel (ISO)
100
AcDbLine
 10
153.0009205960757
 20
133.828060382812
 30
0.0
 11
197.2009205960756
 21
133.828060382812
 31
0.0
  0
LINE
  5
205
330
1E7
100
AcDbEntity
  8
Titel (ISO)
100
AcDbLine
 10
106.2009205960756
 20
99.828060382812
 30
0.0
 11
106.2009205960756
 21
138.078060382812
 31
0.0
  0
LINE
  5
206
330
1E7
100
AcDbEntity
  8
Titel (ISO)
100
AcDbLine
 10
132.2009205960756
 20
99.828060382812
 30
0.0
 11
132.2009205960756
 21
138.078060382812
 31
0.0
  0
LINE
  5
207
330
1E7
100
AcDbEntity
  8
Titel (ISO)
100
AcDbLine
 10
145.2009205960756
 20
99.828060382812
 30
0.0
 11
145.2009205960756
 21
138.078060382812
 31
0.0
  0
LINE
  5
208
330
1E7
100
AcDbEntity
  8
Titel (ISO)
100
AcDbLine
 10
163.4009205960756
 20
121.0780603828121
 30
0.0
 11
163.4009205960756
 21
138.0780603828121
 31
0.0
  0
LINE
  5
209
330
1E7
100
AcDbEntity
  8
Titel (ISO)
100
AcDbLine
 10
179.0009205960756
 20
116.828060382812
 30
0.0
 11
179.0009205960756
 21
138.0780603828121
 31
0.0
  0
LINE
  5
20A
330
1E7
100
AcDbEntity
  8
Titel (ISO)
100
AcDbLine
 10
288.4009205960757
 20
127.453060382812
 30
0.0
 11
197.2009205960756
 21
127.453060382812
 31
0.0
  0
LINE
  5
20B
330
1E7
100
AcDbEntity
  8
Titel (ISO)
100
AcDbLine
 10
197.2009205960756
 20
148.328060382812
 30
0.0
 11
98.40092059607565
 21
148.328060382812
 31
0.0
  0
TEXT
  5
20C
330
1E7
100
AcDbEntity
  8
Titel (ISO)
100
AcDbText
 10
99.22592047388619
 20
101.2030603530096
 30
0.0
 40
1.500000059604644
  1
Status
  7
Notiztext (DIN)
 72
     1
 11
102.3009205960757
 21
101.953060382812
 31
0.0
100
AcDbText
 73
     2
  0
TEXT
  5
20D
330
1E7
100
AcDbEntity
  8
Titel (ISO)
100
AcDbText
 10
113.8759203844791
 20
101.2030603530096
 30
0.0
 40
1.500000059604644
  1
Änderungen
  7
Notiztext (DIN)
 72
     1
 11
119.2009205960756
 21
101.953060382812
 31
0.0
100
AcDbText
 73
     2
  0
TEXT
  5
20E
330
1E7
100
AcDbEntity
  8
Titel (ISO)
100
AcDbText
 10
135.9259204858071
 20
101.2030603530096
 30
0.0
 40
1.500000059604644
  1
Datum
  7
Notiztext (DIN)
 72
     1
 11
138.7009205960757
 21
101.953060382812
 31
0.0
100
AcDbText
 73
     2
  0
TEXT
  5
20F
330
1E7
100
AcDbEntity
  8
Titel (ISO)
100
AcDbText
 10
146.7759205036885
 20
101.2030603530096
 30
0.0
 40
1.500000059604644
  1
Name
  7
Notiztext (DIN)
 72
     1
 11
149.1009205960757
 21
101.953060382812
 31
0.0
100
AcDbText
 73
     2
  0
TEXT
  5
210
330
1E7
100
AcDbEntity
  8
Titel (ISO)
100
AcDbText
 10
154.0009205960757
 20
130.8178331196124
 30
0.0
 40
1.500000059604644
  1
Gezeichnet
  7
Notiztext (DIN)
 11
154.0009205960757
 21
130.578060382812
 31
0.0
100
AcDbText
 73
     1
  0
TEXT
  5
211
330
1E7
100
AcDbEntity
  8
Titel (ISO)
100
AcDbText
 10
154.0009205960757
 20
126.5678331196124
 30
0.0
 40
1.500000059604644
  1
Kontrolliert
  7
Notiztext (DIN)
 11
154.0009205960757
 21
126.328060382812
 31
0.0
100
AcDbText
 73
     1
  0
TEXT
  5
212
330
1E7
100
AcDbEntity
  8
Titel (ISO)
100
AcDbText
 10
154.0009205960757
 20
122.3178331196125
 30
0.0
 40
1.500000059604644
  1
Norm
  7
Notiztext (DIN)
 11
154.0009205960757
 21
122.0780603828121
 31
0.0
100
AcDbText
 73
     1
  0
TEXT
  5
213
330
1E7
100
AcDbEntity
  8
Titel (ISO)
100
AcDbText
 10
167.5009205409413
 20
135.1477573572728
 30
0.0
 40
2.000000029802321
  1
Datum
  7
Notiztext (DIN)
 72
     1
 11
171.2009205960756
 21
134.828060382812
 31
0.0
100
AcDbText
 73
     1
  0
TEXT
  5
214
330
1E7
100
AcDbEntity
  8
Titel (ISO)
100
AcDbText
 10
185.0009205498819
 20
135.1477573572728
 30
0.0
 40
2.000000029802321
  1
Name
  7
Notiztext (DIN)
 72
     1
 11
188.1009205960756
 21
134.828060382812
 31
0.0
100
AcDbText
 73
     1
  0
MTEXT
  5
215
330
1E7
100
AcDbEntity
  8
Titel (ISO)
100
AcDbMText
 10
198.8093851227821
 20
153.3314456164458
 30
0.0
 40
3.499999940395355
 41
0.0
 71
     1
 72
     1
  1
Material:\fISOCPEUR|b0|i0;
  7
Notiztext (DIN)
 73
     1
 44
1.0
1001
ACAD
1000
MTEXTBEGIN
1070
    73
1070
     1
1070
    44
1040
1.0
1070
    74
1070
     0
1000
MTEXTEND
  0
MTEXT
  5
216
330
1E7
100
AcDbEntity
  8
Titel (ISO)
100
AcDbMText
 10
251.5987992657429
 20
153.6695220851552
 30
0.0
 40
3.499999940395355
 41
0.0
 71
     1
 72
     1
  1
MID:250
  7
Notiztext (DIN)
 73
     1
 44
1.0
1001
ACAD
1000
MTEXTBEGIN
1070
    73
1070
     1
1070
    44
1040
1.0
1070
    74
1070
     0
1000
MTEXTEND
  0
MTEXT
  5
217
330
1E7
100
AcDbEntity
  8
Titel (ISO)
100
AcDbMText
 10
198.8270526432173
 20
124.5913615735509
 30
0.0
 40
5.0
 41
0.0
 71
     1
 72
     1
  1
\fISOCPEUR|b0|i0;\H5.0000;Projekt:CAD extern
  7
Notiztext (DIN)
 73
     1
 44
1.0
1001
ACAD
1000
MTEXTBEGIN
1070
    73
1070
     1
1070
    44
1040
1.0
1070
    74
1070
     0
1000
MTEXTEND
  0
MTEXT
  5
218
330
1E7
100
AcDbEntity
  8
Titel (ISO)
100
AcDbMText
 10
198.6643560619287
 20
145.9477472659337
 30
0.0
 40
5.0
 41
0.0
 71
     1
 72
     1
  1
\fISOCPEUR|b0|i0;\H5.0000;Kunde:
  7
Notiztext (DIN)
 73
     1
 44
1.0
1001
ACAD
1000
MTEXTBEGIN
1070
    73
1070
     1
1070
    44
1040
1.0
1070
    74
1070
     0
1000
MTEXTEND
  0
MTEXT
  5
219
330
1E7
100
AcDbEntity
  8
Titel (ISO)
100
AcDbMText
 10
154.4670869667617
 20
153.338419462863
 30
0.0
 40
3.499999940395355
 41
0.0
 71
     1
 72
     1
  1
ANr.:\fISOCPEUR|b0|i0;
  7
Notiztext (DIN)
 73
     1
 44
1.0
1001
ACAD
1000
MTEXTBEGIN
1070
    73
1070
     1
1070
    44
1040
1.0
1070
    74
1070
     0
1000
MTEXTEND
  0
MTEXT
  5
21A
330
1E7
100
AcDbEntity
  8
Titel (ISO)
100
AcDbMText
 10
154.1572374429555
 20
144.9594922544821
 30
0.0
 40
3.499999940395355
 41
0.0
 71
     1
 72
     1
  1
KNr.:\fISOCPEUR|b0|i0;
  7
Notiztext (DIN)
 73
     1
 44
1.0
1001
ACAD
1000
MTEXTBEGIN
1070
    73
1070
     1
1070
    44
1040
1.0
1070
    74
1070
     0
1000
MTEXTEND
  0
MTEXT
  5
21B
330
1E7
100
AcDbEntity
  8
Titel (ISO)
100
AcDbMText
 10
99.69756531777807
 20
147.1456483097969
 30
0.0
 40
3.499999940395355
 41
0.0
 71
     1
 72
     1
  1
Lieferant:\fISOCPEUR|b0|i0;Zangenberg
  7
Notiztext (DIN)
 73
     1
 44
1.0
1001
ACAD
1000
MTEXTBEGIN
1070
    73
1070
     1
1070
    44
1040
1.0
1070
    74
1070
     0
1000
MTEXTEND
  0
MTEXT
  5
21C
102
{ACAD_XDICTIONARY
360
42E
102
}
330
1E7
100
AcDbEntity
  8
Titel (ISO)
100
AcDbMText
 10
99.50017649982241
 20
153.3971258610357
 30
0.0
 40
3.499999940395355
 41
0.0
 71
     1
 72
     1
  1
Ma\U+00DFstab:1:1
  7
Notiztext (DIN)
 73
     1
 44
1.0
1001
ACAD
1000
MTEXTBEGIN
1070
    73
1070
     1
1070
    44
1040
1.0
1070
    74
1070
     0
1000
MTEXTEND
  0
MTEXT
  5
21D
330
1E7
100
AcDbEntity
  8
Titel (ISO)
100
AcDbMText
 10
154.5665241725813
 20
115.7812574216837
 30
0.0
 40
4.000000059604643
 41
41.23190879821779
 71
     1
 72
     1
  1
\fISOCPEUR|b0|i0;\H4.0000;Axel Zangenberg\PGmbH & Co. KG
  7
Notiztext (DIN)
 73
     2
 44
1.068348169326782
1001
ACAD
1000
MTEXTBEGIN
1070
    73
1070
     2
1070
    44
1040
1.068348169326782
1070
    74
1070
     0
1000
MTEXTEND
  0
MTEXT
  5
21E
330
1E7
100
AcDbEntity
  8
Titel (ISO)
100
AcDbMText
 10
99.8372589388262
 20
142.7355508339425
 30
0.0
 40
3.499999940395355
 41
0.0
 71
     1
 72
     1
  1
Liefertermin:
  7
Notiztext (DIN)
 73
     1
 44
1.0
1001
ACAD
1000
MTEXTBEGIN
1070
    73
1070
     1
1070
    44
1040
1.0
1070
    74
1070
     0
1000
MTEXTEND
  0
ATTDEF
  5
21F
330
1E7
100
AcDbEntity
  8
Titel (ISO)
100
AcDbText
 10
277.7509205960758
 20
110.0235732033248
 30
0.0
 40
5.0
  1
1 
  7
Notiztext (DIN)
 72
     1
 11
280.5009205960757
 21
112.5235732033248
 31
0.0
100
AcDbAttributeDefinition
  3
Blattnummer
  2
Blattnummer
 70
     0
 74
     2
  0
ATTDEF
  5
220
330
1E7
100
AcDbEntity
  8
Titel (ISO)
100
AcDbText
 10
257.0009205960757
 20
104.8985732033249
 30
0.0
 40
2.5
  1
Benutzerdefinierte Größe (mm)
  7
Notiztext (DIN)
 72
     1
 11
280.5009205960757
 21
106.1485732033249
 31
0.0
100
AcDbAttributeDefinition
  3
Blattgröße
  2
Blattgröße
 70
     0
 74
     2
  0
ATTDEF
  5
221
330
1E7
100
AcDbEntity
  8
Titel (ISO)
100
AcDbText
 10
198.2009205960756
 20
129.7602929821155
 30
0.0
 40
5.0
  1
Optimale-Länge
  7
Notiztext (DIN)
 11
198.2009205960756
 21
132.2602929821155
 31
0.0
100
AcDbAttributeDefinition
  3
TITEL
  2
TITEL
 70
     0
 74
     2
  0
ATTDEF
  5
222
330
1E7
100
AcDbEntity
  8
Titel (ISO)
100
AcDbText
 10
198.2009205960756
 20
107.953060382812
 30
0.0
 40
5.0
  1
Alligator250 KL-Flansch 
  7
Notiztext (DIN)
 11
198.2009205960756
 21
110.453060382812
 31
0.0
100
AcDbAttributeDefinition
  3
BAUTEILNUMMER
  2
BAUTEILNUMMER
 70
     0
 74
     2
  0
ATTDEF
  5
223
330
1E7
100
AcDbEntity
  8
Titel (ISO)
100
AcDbText
 10
164.4009205960756
 20
130.8977573572728
 30
0.0
 40
2.000000029802321
  1
05.12.2006
  7
Notiztext (DIN)
 11
164.4009205960756
 21
130.578060382812
 31
0.0
100
AcDbAttributeDefinition
  3
ERSTELLUNGSDATUM
  2
ERSTELLUNGSDATUM
 70
     0
 74
     1
  0
ATTDEF
  5
224
330
1E7
100
AcDbEntity
  8
Titel (ISO)
100
AcDbText
 10
164.4009205960756
 20
126.6477573572728
 30
0.0
 40
2.000000029802321
  1

  7
Notiztext (DIN)
 11
164.4009205960756
 21
126.328060382812
 31
0.0
100
AcDbAttributeDefinition
  3
KONTROLLDATUM
  2
KONTROLLDATUM
 70
     0
 74
     1
  0
ATTDEF
  5
225
330
1E7
100
AcDbEntity
  8
Titel (ISO)
100
AcDbText
 10
164.4009205960756
 20
122.3977573572729
 30
0.0
 40
2.000000029802321
  1

  7
Notiztext (DIN)
 11
164.4009205960756
 21
122.0780603828121
 31
0.0
100
AcDbAttributeDefinition
  3
GENEHM.DAT. KONSTR.
  2
GENEHM.DAT._KONSTR.
 70
     0
 74
     1
  0
ATTDEF
  5
226
330
1E7
100
AcDbEntity
  8
Titel (ISO)
100
AcDbText
 10
180.0009205960756
 20
130.8977573572729
 30
0.0
 40
2.000000029802321
  1
Reinhardt
  7
Notiztext (DIN)
 11
180.0009205960756
 21
130.5780603828121
 31
0.0
100
AcDbAttributeDefinition
  3
AUTOR
  2
AUTOR
 70
     0
 74
     1
  0
ATTDEF
  5
227
330
1E7
100
AcDbEntity
  8
Titel (ISO)
100
AcDbText
 10
180.0009205960756
 20
122.3977573572728
 30
0.0
 40
2.000000029802321
  1

  7
Notiztext (DIN)
 11
180.0009205960756
 21
122.078060382812
 31
0.0
100
AcDbAttributeDefinition
  3
KONSTR. GEN. VON
  2
KONSTR._GEN._VON
 70
     0
 74
     1
  0
ATTDEF
  5
228
330
1E7
100
AcDbEntity
  8
Titel (ISO)
100
AcDbText
 10
180.0009205960756
 20
126.6477573572728
 30
0.0
 40
2.000000029802321
  1

  7
Notiztext (DIN)
 11
180.0009205960756
 21
126.328060382812
 31
0.0
100
AcDbAttributeDefinition
  3
KONTROLLIERT VON
  2
KONTROLLIERT_VON
 70
     0
 74
     1
  0
ENDBLK
  5
1E9
330
1E7
100
AcDbEntity
  8
0
100
AcDbBlockEnd
  0
ENDSEC
  0
SECTION
  2
ENTITIES
  0
INSERT
  5
1E6
330
37
100
AcDbEntity
  8
0
100
AcDbBlockReference
  2
Ränder Default Border
 10
0.0
 20
0.0
 30
0.0
  0
INSERT
  5
229
330
37
100
AcDbEntity
  8
0
100
AcDbBlockReference
 66
     1
  2
Schriftfelder großes schriftfeld
 10
2991.599079403925
 20
-79.828060382812
 30
0.0
  0
ATTRIB
  5
22B
330
229
100
AcDbEntity
  8
Titel (ISO)
100
AcDbText
 10
3269.35
 20
30.19551282051287
 30
0.0
 40
5.0
  1
1 
  7
Notiztext (DIN)
 72
     1
 11
3272.1
 21
32.69551282051287
 31
0.0
100
AcDbAttribute
  2
Blattnummer
 70
     0
 74
     2
  0
ATTRIB
  5
22C
330
229
100
AcDbEntity
  8
Titel (ISO)
100
AcDbText
 10
3248.6
 20
25.07051282051288
 30
0.0
 40
2.5
  1
Benutzerdefinierte Größe (mm)
  7
Notiztext (DIN)
 72
     1
 11
3272.1
 21
26.32051282051288
 31
0.0
100
AcDbAttribute
  2
Blattgröße
 70
     0
 74
     2
  0
ATTRIB
  5
22D
330
229
100
AcDbEntity
  8
Titel (ISO)
100
AcDbText
 10
3189.8
 20
49.93223259930353
 30
0.0
 40
5.0
  1
Optimale-Länge
  7
Notiztext (DIN)
 11
3189.8
 21
52.43223259930353
 31
0.0
100
AcDbAttribute
  2
TITEL
 70
     0
 74
     2
  0
ATTRIB
  5
22E
330
229
100
AcDbEntity
  8
Titel (ISO)
100
AcDbText
 10
3189.8
 20
28.12500000000005
 30
0.0
 40
5.0
  1
Alligator250 KL-Flansch 
  7
Notiztext (DIN)
 11
3189.8
 21
30.62500000000005
 31
0.0
100
AcDbAttribute
  2
BAUTEILNUMMER
 70
     0
 74
     2
  0
ATTRIB
  5
22F
330
229
100
AcDbEntity
  8
Titel (ISO)
100
AcDbText
 10
3156.0
 20
51.06969697446089
 30
0.0
 40
2.000000029802321
  1
05.12.2006
  7
Notiztext (DIN)
 11
3156.0
 21
50.75000000000006
 31
0.0
100
AcDbAttribute
  2
ERSTELLUNGSDATUM
 70
     0
 74
     1
  0
ATTRIB
  5
230
330
229
100
AcDbEntity
  8
Titel (ISO)
100
AcDbText
 10
3156.0
 20
46.81969697446088
 30
0.0
 40
2.000000029802321
  1

  7
Notiztext (DIN)
 11
3156.0
 21
46.50000000000004
 31
0.0
100
AcDbAttribute
  2
KONTROLLDATUM
 70
     0
 74
     1
  0
ATTRIB
  5
231
330
229
100
AcDbEntity
  8
Titel (ISO)
100
AcDbText
 10
3156.0
 20
42.56969697446089
 30
0.0
 40
2.000000029802321
  1

  7
Notiztext (DIN)
 11
3156.0
 21
42.25000000000007
 31
0.0
100
AcDbAttribute
  2
GENEHM.DAT._KONSTR.
 70
     0
 74
     1
  0
ATTRIB
  5
232
330
229
100
AcDbEntity
  8
Titel (ISO)
100
AcDbText
 10
3171.6
 20
51.06969697446092
 30
0.0
 40
2.000000029802321
  1
Reinhardt
  7
Notiztext (DIN)
 11
3171.6
 21
50.75000000000009
 31
0.0
100
AcDbAttribute
  2
AUTOR
 70
     0
 74
     1
  0
ATTRIB
  5
233
330
229
100
AcDbEntity
  8
Titel (ISO)
100
AcDbText
 10
3171.6
 20
42.56969697446086
 30
0.0
 40
2.000000029802321
  1

  7
Notiztext (DIN)
 11
3171.6
 21
42.25000000000004
 31
0.0
100
AcDbAttribute
  2
KONSTR._GEN._VON
 70
     0
 74
     1
  0
ATTRIB
  5
234
330
229
100
AcDbEntity
  8
Titel (ISO)
100
AcDbText
 10
3171.6
 20
46.81969697446088
 30
0.0
 40
2.000000029802321
  1

  7
Notiztext (DIN)
 11
3171.6
 21
46.50000000000004
 31
0.0
100
AcDbAttribute
  2
KONTROLLIERT_VON
 70
     0
 74
     1
  0
SEQEND
  5
22A
330
229
100
AcDbEntity
  8
0
  0
LINE
  5
235
330
37
100
AcDbEntity
  8
Sichtbar (ISO)
100
AcDbLine
 10
1563.410556570857
 20
1321.30309646291
 30
0.0
 11
1438.410556570856
 21
1321.30309646291
 31
0.0
  0
LINE
  5
236
330
37
100
AcDbEntity
  8
Sichtbar (ISO)
100
AcDbLine
 10
1435.910556570856
 20
1301.303096462909
 30
0.0
 11
1565.910556570856
 21
1301.303096462909
 31
0.0
  0
LINE
  5
237
330
37
100
AcDbEntity
  8
Sichtbar (ISO)
100
AcDbLine
 10
1563.410556570857
 20
1321.30309646291
 30
0.0
 11
1563.410556570857
 21
1301.303096462909
 31
0.0
  0
LINE
  5
238
330
37
100
AcDbEntity
  8
Sichtbar (ISO)
100
AcDbLine
 10
1438.410556570856
 20
1321.303096462909
 30
0.0
 11
1438.410556570856
 21
1301.303096462909
 31
0.0
  0
LINE
  5
239
330
37
100
AcDbEntity
  8
Sichtbar (ISO)
100
AcDbLine
 10
1435.910556570856
 20
1265.30309646291
 30
0.0
 11
1565.910556570856
 21
1265.30309646291
 31
0.0
  0
LINE
  5
23A
330
37
100
AcDbEntity
  8
Sichtbar (ISO)
100
AcDbLine
 10
1535.910556570857
 20
1235.303096462909
 30
0.0
 11
1465.910556570857
 21
1235.303096462909
 31
0.0
  0
LINE
  5
23B
330
37
100
AcDbEntity
  8
Sichtbar (ISO)
100
AcDbLine
 10
1465.910556570857
 20
1235.303096462909
 30
0.0
 11
1435.910556570856
 21
1265.30309646291
 31
0.0
  0
LINE
  5
23C
330
37
100
AcDbEntity
  8
Sichtbar (ISO)
100
AcDbLine
 10
1535.910556570857
 20
1235.303096462909
 30
0.0
 11
1565.910556570856
 21
1265.30309646291
 31
0.0
  0
LINE
  5
23D
330
37
100
AcDbEntity
  8
Sichtbar (ISO)
100
AcDbLine
 10
1453.410556570857
 20
1222.30309646291
 30
0.0
 11
1548.410556570857
 21
1222.30309646291
 31
0.0
  0
LINE
  5
23E
330
37
100
AcDbEntity
  8
Sichtbar (ISO)
100
AcDbLine
 10
1453.410556570857
 20
1209.30309646291
 30
0.0
 11
1453.410556570857
 21
1222.30309646291
 31
0.0
  0
LINE
  5
23F
330
37
100
AcDbEntity
  8
Sichtbar (ISO)
100
AcDbLine
 10
1548.410556570857
 20
1209.30309646291
 30
0.0
 11
1548.410556570857
 21
1222.30309646291
 31
0.0
  0
LINE
  5
240
330
37
100
AcDbEntity
  8
Sichtbar (ISO)
100
AcDbLine
 10
1699.910556570857
 20
1201.80309646291
 30
0.0
 11
1699.910556570857
 21
806.8030964629096
 31
0.0
  0
LINE
  5
241
330
37
100
AcDbEntity
  8
Sichtbar (ISO)
100
AcDbLine
 10
1725.910556570856
 20
806.8030964629096
 30
0.0
 11
1725.910556570856
 21
1187.212847572939
 31
0.0
  0
LINE
  5
242
330
37
100
AcDbEntity
  8
Sichtbar (ISO)
100
AcDbLine
 10
1699.910556570857
 20
1201.80309646291
 30
0.0
 11
1725.910556570856
 21
1201.80309646291
 31
0.0
  0
LINE
  5
243
330
37
100
AcDbEntity
  8
Sichtbar (ISO)
100
AcDbLine
 10
1699.910556570857
 20
806.8030964629096
 30
0.0
 11
1725.910556570856
 21
806.8030964629096
 31
0.0
  0
LINE
  5
244
330
37
100
AcDbEntity
  8
Sichtbar (ISO)
100
AcDbLine
 10
1699.910556570857
 20
867.8030964629098
 30
0.0
 11
1578.910556570856
 21
867.8030964629098
 31
0.0
  0
LINE
  5
245
330
37
100
AcDbEntity
  8
Sichtbar (ISO)
100
AcDbLine
 10
1699.910556570857
 20
1140.803096462909
 30
0.0
 11
1578.910556570856
 21
1140.803096462909
 31
0.0
  0
LINE
  5
246
330
37
100
AcDbEntity
  8
Sichtbar (ISO)
100
AcDbLine
 10
1578.910556570856
 20
1089.30309646291
 30
0.0
 11
1578.910556570856
 21
1209.30309646291
 31
0.0
  0
LINE
  5
247
330
37
100
AcDbEntity
  8
Sichtbar (ISO)
100
AcDbLine
 10
1578.910556570856
 20
919.3030964629096
 30
0.0
 11
1578.910556570856
 21
1089.30309646291
 31
0.0
  0
LINE
  5
248
330
37
100
AcDbEntity
  8
Sichtbar (ISO)
100
AcDbLine
 10
1578.910556570856
 20
799.3030964629097
 30
0.0
 11
1578.910556570856
 21
919.3030964629096
 31
0.0
  0
LINE
  5
249
330
37
100
AcDbEntity
  8
Sichtbar (ISO)
100
AcDbLine
 10
1422.910556570857
 20
919.3030964629096
 30
0.0
 11
1422.910556570857
 21
799.3030964629097
 31
0.0
  0
LINE
  5
24A
330
37
100
AcDbEntity
  8
Sichtbar (ISO)
100
AcDbLine
 10
1422.910556570857
 20
1089.30309646291
 30
0.0
 11
1422.910556570857
 21
919.3030964629096
 31
0.0
  0
LINE
  5
24B
330
37
100
AcDbEntity
  8
Sichtbar (ISO)
100
AcDbLine
 10
1422.910556570857
 20
1209.30309646291
 30
0.0
 11
1422.910556570857
 21
1089.30309646291
 31
0.0
  0
LINE
  5
24C
330
37
100
AcDbEntity
  8
Sichtbar (ISO)
100
AcDbLine
 10
1578.910556570856
 20
1209.30309646291
 30
0.0
 11
1422.910556570857
 21
1209.30309646291
 31
0.0
  0
LINE
  5
24D
330
37
100
AcDbEntity
  8
Sichtbar (ISO)
100
AcDbLine
 10
1578.910556570856
 20
1089.30309646291
 30
0.0
 11
1422.910556570857
 21
1089.30309646291
 31
0.0
  0
LINE
  5
24E
330
37
100
AcDbEntity
  8
Sichtbar (ISO)
100
AcDbLine
 10
1578.910556570856
 20
919.3030964629096
 30
0.0
 11
1422.910556570857
 21
919.3030964629096
 31
0.0
  0
LINE
  5
24F
330
37
100
AcDbEntity
  8
Sichtbar (ISO)
100
AcDbLine
 10
1578.910556570856
 20
799.3030964629097
 30
0.0
 11
1422.910556570857
 21
799.3030964629097
 31
0.0
  0
LINE
  5
250
330
37
100
AcDbEntity
  8
Sichtbar (ISO)
100
AcDbLine
 10
1301.910556570857
 20
1201.80309646291
 30
0.0
 11
1301.910556570857
 21
806.8030964629096
 31
0.0
  0
LINE
  5
251
330
37
100
AcDbEntity
  8
Sichtbar (ISO)
100
AcDbLine
 10
1275.910556570856
 20
806.8030964629096
 30
0.0
 11
1275.910556570856
 21
1182.258746513444
 31
0.0
  0
LINE
  5
252
330
37
100
AcDbEntity
  8
Sichtbar (ISO)
100
AcDbLine
 10
1275.910556570856
 20
1201.80309646291
 30
0.0
 11
1301.910556570856
 21
1201.80309646291
 31
0.0
  0
LINE
  5
253
330
37
100
AcDbEntity
  8
Sichtbar (ISO)
100
AcDbLine
 10
1275.910556570856
 20
806.8030964629096
 30
0.0
 11
1301.910556570857
 21
806.8030964629096
 31
0.0
  0
LINE
  5
254
330
37
100
AcDbEntity
  8
Sichtbar (ISO)
100
AcDbLine
 10
1435.910556570856
 20
1265.30309646291
 30
0.0
 11
1435.910556570856
 21
1301.303096462909
 31
0.0
  0
LINE
  5
255
330
37
100
AcDbEntity
  8
Sichtbar (ISO)
100
AcDbLine
 10
1565.910556570856
 20
1265.30309646291
 30
0.0
 11
1565.910556570856
 21
1301.303096462909
 31
0.0
  0
LINE
  5
256
330
37
100
AcDbEntity
  8
Sichtbar (ISO)
100
AcDbLine
 10
1470.910556570857
 20
1222.30309646291
 30
0.0
 11
1470.910556570857
 21
1235.303096462909
 31
0.0
  0
LINE
  5
257
330
37
100
AcDbEntity
  8
Sichtbar (ISO)
100
AcDbLine
 10
1530.910556570856
 20
1222.30309646291
 30
0.0
 11
1530.910556570856
 21
1235.303096462909
 31
0.0
  0
LINE
  5
258
330
37
100
AcDbEntity
  8
Sichtbar (ISO)
100
AcDbLine
 10
1422.910556570857
 20
867.8030964629098
 30
0.0
 11
1301.910556570857
 21
867.8030964629098
 31
0.0
  0
LINE
  5
259
330
37
100
AcDbEntity
  8
Sichtbar (ISO)
100
AcDbLine
 10
1422.910556570857
 20
1140.803096462909
 30
0.0
 11
1301.910556570857
 21
1140.803096462909
 31
0.0
  0
LINE
  5
25A
330
37
100
AcDbEntity
  8
Sichtbar (ISO)
100
AcDbLine
 10
690.9105565708566
 20
1201.80309646291
 30
0.0
 11
660.9105565708566
 21
1201.80309646291
 31
0.0
  0
LINE
  5
25B
330
37
100
AcDbEntity
  8
Sichtbar (ISO)
100
AcDbLine
 10
690.9105565708566
 20
1399.30309646291
 30
0.0
 11
690.9105565708566
 21
1201.80309646291
 31
0.0
  0
LINE
  5
25C
330
37
100
AcDbEntity
  8
Sichtbar (ISO)
100
AcDbLine
 10
690.9105565708566
 20
1399.30309646291
 30
0.0
 11
720.9105565708568
 21
1399.30309646291
 31
0.0
  0
LINE
  5
25D
330
37
100
AcDbEntity
  8
Sichtbar (ISO)
100
AcDbLine
 10
660.9105565708566
 20
1004.303096462909
 30
0.0
 11
660.9105565708566
 21
1201.80309646291
 31
0.0
  0
LINE
  5
25E
330
37
100
AcDbEntity
  8
Sichtbar (ISO)
100
AcDbLine
 10
720.9105565708568
 20
1004.30309646291
 30
0.0
 11
720.9105565708568
 21
1123.466849341039
 31
0.0
  0
LINE
  5
25F
330
37
100
AcDbEntity
  8
Sichtbar (ISO)
100
AcDbLine
 10
835.9105565708567
 20
1399.30309646291
 30
0.0
 11
905.9105565708566
 21
1399.30309646291
 31
0.0
  0
LINE
  5
260
330
37
100
AcDbEntity
  8
Sichtbar (ISO)
100
AcDbLine
 10
720.9105565708568
 20
1299.30309646291
 30
0.0
 11
720.9105565708568
 21
1399.30309646291
 31
0.0
  0
LINE
  5
261
330
37
100
AcDbEntity
  8
Sichtbar (ISO)
100
AcDbLine
 10
720.9105565708568
 20
948.3091661453252
 30
0.0
 11
720.9105565708568
 21
868.278120023354
 31
0.0
  0
LINE
  5
262
330
37
100
AcDbEntity
  8
Sichtbar (ISO)
100
AcDbLine
 10
720.9105565708568
 20
861.1128182153334
 30
0.0
 11
720.9105565708568
 21
814.9068721932863
 31
0.0
  0
LINE
  5
263
330
37
100
AcDbEntity
  8
Sichtbar (ISO)
100
AcDbLine
 10
720.9105565708568
 20
812.2841897057687
 30
0.0
 11
720.9105565708568
 21
806.8030964629096
 31
0.0
  0
LINE
  5
264
330
37
100
AcDbEntity
  8
Sichtbar (ISO)
100
AcDbLine
 10
720.9105565708568
 20
1004.30309646291
 30
0.0
 11
720.9105565708568
 21
958.0971504408617
 31
0.0
  0
LINE
  5
265
330
37
100
AcDbEntity
  8
Sichtbar (ISO)
100
AcDbLine
 10
660.9105565708566
 20
1004.30309646291
 30
0.0
 11
660.9105565708566
 21
806.8030964629096
 31
0.0
  0
LINE
  5
266
330
37
100
AcDbEntity
  8
Sichtbar (ISO)
100
AcDbLine
 10
660.9105565708566
 20
806.8030964629096
 30
0.0
 11
720.9105565708568
 21
806.8030964629096
 31
0.0
  0
LINE
  5
267
330
37
100
AcDbEntity
  8
Sichtbar (ISO)
100
AcDbLine
 10
720.9105565708568
 20
1123.466849341039
 30
0.0
 11
794.9105565708564
 21
1123.466849341039
 31
0.0
  0
LINE
  5
268
330
37
100
AcDbEntity
  8
Sichtbar (ISO)
100
AcDbLine
 10
905.9105565708566
 20
1315.724488981185
 30
0.0
 11
905.9105565708566
 21
1399.30309646291
 31
0.0
  0
LINE
  5
269
330
37
100
AcDbEntity
  8
Sichtbar (ISO)
100
AcDbLine
 10
905.9105565708566
 20
1315.724488981185
 30
0.0
 11
794.9105565708564
 21
1123.466849341039
 31
0.0
  0
LINE
  5
26A
330
37
100
AcDbEntity
  8
Sichtbar (ISO)
100
AcDbLine
 10
830.9105565708566
 20
1394.30309646291
 30
0.0
 11
835.9105565708567
 21
1399.30309646291
 31
0.0
  0
LINE
  5
26B
330
37
100
AcDbEntity
  8
Sichtbar (ISO)
100
AcDbLine
 10
830.9105565708566
 20
1394.30309646291
 30
0.0
 11
830.9105565708566
 21
1349.30309646291
 31
0.0
  0
LINE
  5
26C
330
37
100
AcDbEntity
  8
Sichtbar (ISO)
100
AcDbLine
 10
780.9105565708566
 20
1299.30309646291
 30
0.0
 11
720.9105565708568
 21
1299.303096462909
 31
0.0
  0
ARC
  5
26D
330
37
100
AcDbEntity
  8
Sichtbar (ISO)
100
AcDbCircle
 10
780.9105565708566
 20
1349.30309646291
 30
0.0
 40
50.0
100
AcDbArc
 50
270.0
 51
0.0
  0
LINE
  5
26E
330
37
100
AcDbEntity
  8
Sichtbar (ISO)
100
AcDbLine
 10
720.9105565708568
 20
958.0971504408617
 30
0.0
 11
720.9105565708568
 21
948.3091661453252
 31
0.0
  0
LINE
  5
26F
330
37
100
AcDbEntity
  8
Sichtbar (ISO)
100
AcDbLine
 10
720.9105565708568
 20
868.278120023354
 30
0.0
 11
720.9105565708568
 21
861.1128182153336
 31
0.0
  0
LINE
  5
270
330
37
100
AcDbEntity
  8
Sichtbar (ISO)
100
AcDbLine
 10
720.9105565708568
 20
814.9068721932863
 30
0.0
 11
720.9105565708568
 21
812.2841897057686
 31
0.0
  0
LINE
  5
271
330
37
100
AcDbEntity
  8
Sichtbar (ISO)
100
AcDbLine
 10
730.9105565708566
 20
1094.303096462909
 30
0.0
 11
730.9105565708566
 21
1123.466849341039
 31
0.0
  0
LINE
  5
272
330
37
100
AcDbEntity
  8
Sichtbar (ISO)
100
AcDbLine
 10
730.9105565708566
 20
1299.303096462909
 30
0.0
 11
730.9105565708566
 21
1349.30309646291
 31
0.0
  0
LINE
  5
273
330
37
100
AcDbEntity
  8
Sichtbar (ISO)
100
AcDbLine
 10
770.9105565708568
 20
1300.313301607246
 30
0.0
 11
770.9105565708568
 21
1299.303096462909
 31
0.0
  0
LINE
  5
274
330
37
100
AcDbEntity
  8
Sichtbar (ISO)
100
AcDbLine
 10
770.9105565708568
 20
1123.466849341039
 30
0.0
 11
770.9105565708568
 21
1094.303096462909
 31
0.0
  0
LINE
  5
275
330
37
100
AcDbEntity
  8
Sichtbar (ISO)
100
AcDbLine
 10
730.9105565708566
 20
1004.303096462909
 30
0.0
 11
730.9105565708566
 21
1094.303096462909
 31
0.0
  0
LINE
  5
276
330
37
100
AcDbEntity
  8
Sichtbar (ISO)
100
AcDbLine
 10
770.9105565708568
 20
1004.303096462909
 30
0.0
 11
770.9105565708568
 21
1094.303096462909
 31
0.0
  0
LINE
  5
277
330
37
100
AcDbEntity
  8
Sichtbar (ISO)
100
AcDbLine
 10
770.9105565708568
 20
1004.303096462909
 30
0.0
 11
770.9105565708568
 21
824.3030964629097
 31
0.0
  0
LINE
  5
278
330
37
100
AcDbEntity
  8
Sichtbar (ISO)
100
AcDbLine
 10
730.9105565708566
 20
824.3030964629097
 30
0.0
 11
730.9105565708566
 21
1004.303096462909
 31
0.0
  0
LINE
  5
279
330
37
100
AcDbEntity
  8
Sichtbar (ISO)
100
AcDbLine
 10
730.9105565708566
 20
824.3030964629097
 30
0.0
 11
770.9105565708568
 21
824.3030964629097
 31
0.0
  0
CIRCLE
  5
27A
330
37
100
AcDbEntity
  8
Sichtbar (ISO)
100
AcDbCircle
 10
780.9105565708566
 20
1349.30309646291
 30
0.0
 40
50.0
  0
LINE
  5
27B
330
37
100
AcDbEntity
  8
Sichtbar (ISO)
100
AcDbLine
 10
1275.910556570857
 20
1182.258746513444
 30
0.0
 11
1275.910556570857
 21
1185.167763786826
 31
0.0
  0
LINE
  5
27C
330
37
100
AcDbEntity
  8
Sichtbar (ISO)
100
AcDbLine
 10
1245.910556570857
 20
1185.167763786826
 30
0.0
 11
1245.910556570857
 21
1182.258746513444
 31
0.0
  0
LINE
  5
27D
330
37
100
AcDbEntity
  8
Sichtbar (ISO)
100
AcDbLine
 10
1275.910556570857
 20
1245.516299898506
 30
0.0
 11
1275.910556570857
 21
1185.167763786826
 31
0.0
  0
LINE
  5
27E
330
37
100
AcDbEntity
  8
Sichtbar (ISO)
100
AcDbLine
 10
1245.910556570857
 20
1245.516299898506
 30
0.0
 11
1245.910556570857
 21
1185.167763786826
 31
0.0
  0
LINE
  5
27F
330
37
100
AcDbEntity
  8
Sichtbar (ISO)
100
AcDbLine
 10
1245.910556570857
 20
806.8030964629096
 30
0.0
 11
1245.910556570857
 21
1182.258746513444
 31
0.0
  0
LINE
  5
280
330
37
100
AcDbEntity
  8
Sichtbar (ISO)
100
AcDbLine
 10
1275.910556570857
 20
806.8030964629096
 30
0.0
 11
1275.910556570857
 21
1182.258746513444
 31
0.0
  0
LINE
  5
281
330
37
100
AcDbEntity
  8
Sichtbar (ISO)
100
AcDbLine
 10
1245.910556570857
 20
1245.516299898506
 30
0.0
 11
1245.910556570857
 21
1254.30309646291
 31
0.0
  0
LINE
  5
282
330
37
100
AcDbEntity
  8
Sichtbar (ISO)
100
AcDbLine
 10
1275.910556570857
 20
1245.516299898506
 30
0.0
 11
1275.910556570857
 21
1254.30309646291
 31
0.0
  0
LINE
  5
283
330
37
100
AcDbEntity
  8
Sichtbar (ISO)
100
AcDbLine
 10
1275.910556570857
 20
806.8030964629096
 30
0.0
 11
1245.910556570857
 21
806.8030964629096
 31
0.0
  0
LINE
  5
284
330
37
100
AcDbEntity
  8
Sichtbar (ISO)
100
AcDbLine
 10
1275.910556570857
 20
1254.30309646291
 30
0.0
 11
1245.910556570857
 21
1254.30309646291
 31
0.0
  0
LINE
  5
285
330
37
100
AcDbEntity
  8
Sichtbar (ISO)
100
AcDbLine
 10
1245.910556570857
 20
864.3030964629097
 30
0.0
 11
770.9105565708568
 21
864.3030964629097
 31
0.0
  0
LINE
  5
286
330
37
100
AcDbEntity
  8
Sichtbar (ISO)
100
AcDbLine
 10
1245.910556570857
 20
1144.30309646291
 30
0.0
 11
806.9403694555697
 21
1144.303096462909
 31
0.0
  0
LINE
  5
287
330
37
100
AcDbEntity
  8
Sichtbar (ISO)
100
AcDbLine
 10
905.9105565708566
 20
1316.590330505463
 30
0.0
 11
1245.910556570857
 21
1168.292458165037
 31
0.0
  0
LINE
  5
288
330
37
100
AcDbEntity
  8
Sichtbar (ISO)
100
AcDbLine
 10
1755.910556517493
 20
1182.521125419919
 30
0.0
 11
1755.910556521701
 21
1187.21284757294
 31
0.0
  0
LINE
  5
289
330
37
100
AcDbEntity
  8
Sichtbar (ISO)
100
AcDbLine
 10
1725.910556521701
 20
1187.21284757294
 30
0.0
 11
1725.910556517493
 21
1182.521125419919
 31
0.0
  0
LINE
  5
28A
330
37
100
AcDbEntity
  8
Sichtbar (ISO)
100
AcDbLine
 10
1755.910556521701
 20
1187.21284757294
 30
0.0
 11
1755.910556559191
 21
1245.731296914252
 31
0.0
  0
LINE
  5
28B
330
37
100
AcDbEntity
  8
Sichtbar (ISO)
100
AcDbLine
 10
1725.910556521701
 20
1187.21284757294
 30
0.0
 11
1725.910556559191
 21
1245.731296914252
 31
0.0
  0
LINE
  5
28C
330
37
100
AcDbEntity
  8
Sichtbar (ISO)
100
AcDbLine
 10
1755.910556572346
 20
1254.29027049175
 30
0.0
 11
1755.91055655919
 21
1245.731296914252
 31
0.0
  0
LINE
  5
28D
330
37
100
AcDbEntity
  8
Sichtbar (ISO)
100
AcDbLine
 10
1725.910556572346
 20
1254.29027049175
 30
0.0
 11
1725.91055655919
 21
1245.731296914252
 31
0.0
  0
LINE
  5
28E
330
37
100
AcDbEntity
  8
Sichtbar (ISO)
100
AcDbLine
 10
1725.910556572346
 20
1254.29027049175
 30
0.0
 11
1755.910556572346
 21
1254.29027049175
 31
0.0
  0
LINE
  5
28F
330
37
100
AcDbEntity
  8
Sichtbar (ISO)
100
AcDbLine
 10
1755.910556517493
 20
1182.521125419919
 30
0.0
 11
1755.910556570857
 21
806.8030964629089
 31
0.0
  0
LINE
  5
290
330
37
100
AcDbEntity
  8
Sichtbar (ISO)
100
AcDbLine
 10
1725.910556570856
 20
806.8030964629089
 30
0.0
 11
1725.910556517493
 21
1182.521125419919
 31
0.0
  0
LINE
  5
291
330
37
100
AcDbEntity
  8
Sichtbar (ISO)
100
AcDbLine
 10
1725.910556570857
 20
806.8030964629089
 30
0.0
 11
1755.910556570857
 21
806.8030964629089
 31
0.0
  0
ELLIPSE
  5
292
330
37
100
AcDbEntity
  8
Sichtbar (ISO)
100
AcDbEllipse
 10
2252.057923668344
 20
1004.30309646291
 30
0.0
 11
242.4862295417873
 21
-139.99540877689
 31
0.0
210
0.0
220
0.0
230
0.9999999999999998
 40
0.0046757638965828
 41
6.275086587526661
 42
9.416679241116456
  0
LINE
  5
293
330
37
100
AcDbEntity
  8
Sichtbar (ISO)
100
AcDbLine
 10
2494.530899761084
 20
864.3030964629094
 30
0.0
 11
1755.910556570856
 21
864.3030964629094
 31
0.0
  0
LINE
  5
294
330
37
100
AcDbEntity
  8
Sichtbar (ISO)
100
AcDbLine
 10
2009.584947575604
 20
1144.30309646291
 30
0.0
 11
2005.910556473677
 21
1144.30309646291
 31
0.0
  0
LINE
  5
295
330
37
100
AcDbEntity
  8
Sichtbar (ISO)
100
AcDbLine
 10
1780.910556473677
 20
1144.30309646291
 30
0.0
 11
1755.910556570856
 21
1144.30309646291
 31
0.0
  0
LINE
  5
296
330
37
100
AcDbEntity
  8
Sichtbar (ISO)
100
AcDbLine
 10
1780.910556476813
 20
1157.634169613241
 30
0.0
 11
1780.910556473678
 21
1147.634169613812
 31
0.0
  0
LINE
  5
297
330
37
100
AcDbEntity
  8
Sichtbar (ISO)
100
AcDbLine
 10
1780.910556473678
 20
1147.634169613812
 30
0.0
 11
1917.551425109038
 21
1384.3030964806
 31
0.0
  0
LINE
  5
298
330
37
100
AcDbEntity
  8
Sichtbar (ISO)
100
AcDbLine
 10
1917.551425109038
 20
1384.3030964806
 30
0.0
 11
1911.777922420277
 21
1384.30309648003
 31
0.0
  0
LINE
  5
299
330
37
100
AcDbEntity
  8
Sichtbar (ISO)
100
AcDbLine
 10
1911.777922420277
 20
1384.30309648003
 30
0.0
 11
1780.910556476813
 21
1157.634169613241
 31
0.0
  0
LINE
  5
29A
330
37
100
AcDbEntity
  8
Sichtbar (ISO)
100
AcDbLine
 10
2111.777922417142
 20
1384.3030964806
 30
0.0
 11
1917.551425109038
 21
1384.3030964806
 31
0.0
  0
LINE
  5
29B
330
37
100
AcDbEntity
  8
Sichtbar (ISO)
100
AcDbLine
 10
2005.910556473679
 20
1004.303096480599
 30
0.0
 11
2005.910556473679
 21
1204.3030964806
 31
0.0
  0
LINE
  5
29C
330
37
100
AcDbEntity
  8
Sichtbar (ISO)
100
AcDbLine
 10
2005.910556473679
 20
1204.3030964806
 30
0.0
 11
2055.408031156737
 21
1253.800571163658
 31
0.0
  0
LINE
  5
29D
330
37
100
AcDbEntity
  8
Sichtbar (ISO)
100
AcDbLine
 10
2055.408031156737
 20
1253.800571163658
 30
0.0
 11
2067.706116383005
 21
1251.56291630874
 31
0.0
  0
LINE
  5
29E
330
37
100
AcDbEntity
  8
Sichtbar (ISO)
100
AcDbLine
 10
2271.854331497635
 20
1214.417845651856
 30
0.0
 11
2277.224703158336
 21
1243.933250243796
 31
0.0
  0
LINE
  5
29F
330
37
100
AcDbEntity
  8
Sichtbar (ISO)
100
AcDbLine
 10
2277.224703158336
 20
1243.933250243796
 30
0.0
 11
2111.777922417142
 21
1384.3030964806
 31
0.0
  0
LINE
  5
2A0
330
37
100
AcDbEntity
  8
Sichtbar (ISO)
100
AcDbLine
 10
1780.910556473678
 20
1147.634169613812
 30
0.0
 11
1780.910556473678
 21
1104.303096480599
 31
0.0
  0
LINE
  5
2A1
330
37
100
AcDbEntity
  8
Sichtbar (ISO)
100
AcDbLine
 10
1780.910556473678
 20
1104.303096480599
 30
0.0
 11
1755.910556473678
 21
1104.303096480599
 31
0.0
  0
LINE
  5
2A2
330
37
100
AcDbEntity
  8
Sichtbar (ISO)
100
AcDbLine
 10
1755.910556473678
 20
1074.303096480599
 30
0.0
 11
1780.910556473678
 21
1074.303096480599
 31
0.0
  0
LINE
  5
2A3
330
37
100
AcDbEntity
  8
Sichtbar (ISO)
100
AcDbLine
 10
1780.910556473678
 20
1074.303096480599
 30
0.0
 11
1780.910556473678
 21
1024.303096480599
 31
0.0
  0
LINE
  5
2A4
330
37
100
AcDbEntity
  8
Sichtbar (ISO)
100
AcDbLine
 10
1780.910556473678
 20
1024.303096480599
 30
0.0
 11
1755.910556473678
 21
1024.303096480599
 31
0.0
  0
LINE
  5
2A5
330
37
100
AcDbEntity
  8
Sichtbar (ISO)
100
AcDbLine
 10
1755.910556473678
 20
1004.303096480599
 30
0.0
 11
2005.910556473679
 21
1004.303096480599
 31
0.0
  0
LINE
  5
2A6
330
37
100
AcDbEntity
  8
Sichtbar (ISO)
100
AcDbLine
 10
2277.224703170874
 20
1243.933250241513
 30
0.0
 11
2296.90163965014
 21
1240.353002452306
 31
0.0
  0
LINE
  5
2A7
330
37
100
AcDbEntity
  8
Sichtbar (ISO)
100
AcDbLine
 10
2291.531267989439
 20
1210.837597860365
 30
0.0
 11
2296.90163965014
 21
1240.353002452306
 31
0.0
  0
LINE
  5
2A8
330
37
100
AcDbEntity
  8
Sichtbar (ISO)
100
AcDbLine
 10
2613.733330584286
 20
1125.90005038251
 30
0.0
 11
2314.173883202126
 21
1148.798800270999
 31
0.0
  0
LINE
  5
2A9
330
37
100
AcDbEntity
  8
Sichtbar (ISO)
100
AcDbLine
 10
2432.173364064879
 20
1159.837100054975
 30
0.0
 11
2315.698264410865
 21
1168.740622202067
 31
0.0
  0
LINE
  5
2AA
330
37
100
AcDbEntity
  8
Sichtbar (ISO)
100
AcDbLine
 10
2615.257711793024
 20
1145.841872313578
 30
0.0
 11
2434.753431450177
 21
1159.639876037336
 31
0.0
  0
LINE
  5
2AB
330
37
100
AcDbEntity
  8
Sichtbar (ISO)
100
AcDbLine
 10
2615.257711793024
 20
1145.841872313578
 30
0.0
 11
2613.733330584286
 21
1125.900050382509
 31
0.0
  0
LINE
  5
2AC
330
37
100
AcDbEntity
  8
Sichtbar (ISO)
100
AcDbLine
 10
2025.017465201632
 20
1170.902327797699
 30
0.0
 11
2015.808744840467
 21
1181.635429367602
 31
0.0
  0
LINE
  5
2AD
330
37
100
AcDbEntity
  8
Sichtbar (ISO)
100
AcDbLine
 10
2015.808744840468
 20
1181.635429367602
 30
0.0
 11
2016.570935444836
 21
1191.606340333137
 31
0.0
  0
LINE
  5
2AE
330
37
100
AcDbEntity
  8
Sichtbar (ISO)
100
AcDbLine
 10
2314.173883202126
 20
1148.798800270999
 30
0.0
 11
2025.017465201633
 21
1170.902327797699
 31
0.0
  0
LINE
  5
2AF
330
37
100
AcDbEntity
  8
Sichtbar (ISO)
100
AcDbLine
 10
2016.570935444836
 20
1191.606340333137
 30
0.0
 11
2315.698264410865
 21
1168.740622202067
 31
0.0
  0
LINE
  5
2B0
330
37
100
AcDbEntity
  8
Sichtbar (ISO)
100
AcDbLine
 10
2015.808744853007
 20
1181.63542936532
 30
0.0
 11
2015.046554248637
 21
1171.664518399786
 31
0.0
  0
LINE
  5
2B1
330
37
100
AcDbEntity
  8
Sichtbar (ISO)
100
AcDbLine
 10
2005.910556473677
 20
1192.421234848383
 30
0.0
 11
2016.570935476184
 21
1191.60634032743
 31
0.0
  0
LINE
  5
2B2
330
37
100
AcDbEntity
  8
Sichtbar (ISO)
100
AcDbLine
 10
2015.046554267446
 20
1171.664518396362
 30
0.0
 11
2005.910556473677
 21
1172.362887051344
 31
0.0
  0
LINE
  5
2B3
330
37
100
AcDbEntity
  8
Sichtbar (ISO)
100
AcDbLine
 10
2015.046554248637
 20
1171.664518399786
 30
0.0
 11
2025.017465214172
 21
1170.902327795417
 31
0.0
  0
LINE
  5
2B4
330
37
100
AcDbEntity
  8
Sichtbar (ISO)
100
AcDbLine
 10
2063.230806665753
 20
1226.966745815458
 30
0.0
 11
2432.173364065011
 21
1159.837100056704
 31
0.0
  0
ARC
  5
2B5
330
37
100
AcDbEntity
  8
Sichtbar (ISO)
100
AcDbCircle
 10
2434.411018923636
 20
1172.135185303346
 30
0.0
 40
12.49999999999997
100
AcDbArc
 50
259.6877604678293
 51
79.68776046782934
  0
LINE
  5
2B6
330
37
100
AcDbEntity
  8
Sichtbar (ISO)
100
AcDbLine
 10
2436.648673782261
 20
1184.433270549988
 30
0.0
 11
2067.706116383003
 21
1251.562916308742
 31
0.0
  0
ARC
  5
2B7
330
37
100
AcDbEntity
  8
Sichtbar (ISO)
100
AcDbCircle
 10
2065.468461524379
 20
1239.2648310621
 30
0.0
 40
12.50000000796571
100
AcDbArc
 50
79.68776046782268
 51
259.6877604678226
  0
LINE
  5
2B8
330
37
100
AcDbEntity
  8
Sichtbar (ISO)
100
AcDbLine
 10
2250.797623027507
 20
1269.070064475779
 30
0.0
 11
2271.458406241865
 21
1265.310804313289
 31
0.0
  0
LINE
  5
2B9
330
37
100
AcDbEntity
  8
Sichtbar (ISO)
100
AcDbLine
 10
2250.369637192852
 20
1266.717866924556
 30
0.0
 11
2250.797623027507
 21
1269.070064475779
 31
0.0
  0
LINE
  5
2BA
330
37
100
AcDbEntity
  8
Sichtbar (ISO)
100
AcDbLine
 10
2268.860010540444
 20
1251.030098011587
 30
0.0
 11
2271.458406241865
 21
1265.310804313289
 31
0.0
  0
LINE
  5
2BB
330
37
100
AcDbEntity
  8
Sichtbar (ISO)
100
AcDbLine
 10
361.1944997779211
 20
1321.30309646291
 30
0.0
 11
236.1944997779211
 21
1321.30309646291
 31
0.0
  0
LINE
  5
2BC
330
37
100
AcDbEntity
  8
Sichtbar (ISO)
100
AcDbLine
 10
233.6944997779211
 20
1301.303096462909
 30
0.0
 11
363.6944997779211
 21
1301.303096462909
 31
0.0
  0
LINE
  5
2BD
330
37
100
AcDbEntity
  8
Sichtbar (ISO)
100
AcDbLine
 10
361.1944997779211
 20
1321.30309646291
 30
0.0
 11
361.1944997779211
 21
1301.303096462909
 31
0.0
  0
LINE
  5
2BE
330
37
100
AcDbEntity
  8
Sichtbar (ISO)
100
AcDbLine
 10
236.1944997779211
 20
1321.303096462909
 30
0.0
 11
236.1944997779211
 21
1301.303096462909
 31
0.0
  0
ARC
  5
2BF
330
37
100
AcDbEntity
  8
Sichtbar (ISO)
100
AcDbCircle
 10
129.657480177401
 20
959.0097635699684
 30
0.0
 40
10.99999999999999
100
AcDbArc
 50
19.61809292771889
 51
189.7631926397263
  0
ARC
  5
2C0
330
37
100
AcDbEntity
  8
Sichtbar (ISO)
100
AcDbCircle
 10
129.6574801774009
 20
1049.596429355851
 30
0.0
 40
10.99999999999997
100
AcDbArc
 50
349.6180935114946
 51
159.7631921247631
  0
ARC
  5
2C1
330
37
100
AcDbEntity
  8
Sichtbar (ISO)
100
AcDbCircle
 10
174.9508130703421
 20
1128.046783170555
 30
0.0
 40
10.99999999999995
100
AcDbArc
 50
319.6180972017008
 51
17.42798818228378
  0
ARC
  5
2C2
330
37
100
AcDbEntity
  8
Sichtbar (ISO)
100
AcDbCircle
 10
422.4381864856336
 20
1128.046783170555
 30
0.0
 40
11.0
100
AcDbArc
 50
229.6181146029003
 51
32.28920162834516
  0
ARC
  5
2C3
330
37
100
AcDbEntity
  8
Sichtbar (ISO)
100
AcDbCircle
 10
467.7315193785748
 20
1049.596429355851
 30
0.0
 40
10.99999999999999
100
AcDbArc
 50
199.618117281978
 51
9.7632159173851
  0
ARC
  5
2C4
330
37
100
AcDbEntity
  8
Sichtbar (ISO)
100
AcDbCircle
 10
467.7315193785748
 20
959.0097635699684
 30
0.0
 40
10.99999999999999
100
AcDbArc
 50
169.6181166982053
 51
339.7632164323518
  0
ARC
  5
2C5
330
37
100
AcDbEntity
  8
Sichtbar (ISO)
100
AcDbCircle
 10
422.4381864856336
 20
880.5594097552638
 30
0.0
 40
10.99999999999998
100
AcDbArc
 50
139.6181130080004
 51
309.7632136907178
  0
ARC
  5
2C6
330
37
100
AcDbEntity
  8
Sichtbar (ISO)
100
AcDbCircle
 10
343.9878326709293
 20
835.2660768623229
 30
0.0
 40
11.00000000000001
100
AcDbArc
 50
109.6181072001544
 51
279.7632084271037
  0
ARC
  5
2C7
330
37
100
AcDbEntity
  8
Sichtbar (ISO)
100
AcDbCircle
 10
253.4011668850468
 20
835.2660768623227
 30
0.0
 40
11.0
100
AcDbArc
 50
79.6181008308698
 51
249.7632020518874
  0
ARC
  5
2C8
330
37
100
AcDbEntity
  8
Sichtbar (ISO)
100
AcDbCircle
 10
174.9508130703422
 20
880.5594097552638
 30
0.0
 40
11.0
100
AcDbArc
 50
49.61809560679646
 51
219.7631962733058
  0
ARC
  5
2C9
330
37
100
AcDbEntity
  8
Sichtbar (ISO)
100
AcDbCircle
 10
298.694499777988
 20
1004.303096462909
 30
0.0
 40
129.0
100
AcDbArc
 50
108.6295614599112
 51
71.3704385372064
  0
LINE
  5
2CA
330
37
100
AcDbEntity
  8
Sichtbar (ISO)
100
AcDbLine
 10
393.6944997779443
 20
799.3030964629097
 30
0.0
 11
203.6944997779444
 21
799.3030964629097
 31
0.0
  0
LINE
  5
2CB
330
37
100
AcDbEntity
  8
Sichtbar (ISO)
100
AcDbLine
 10
498.6944997779443
 20
919.3030964629096
 30
0.0
 11
393.6944997779443
 21
799.3030964629097
 31
0.0
  0
LINE
  5
2CC
330
37
100
AcDbEntity
  8
Sichtbar (ISO)
100
AcDbLine
 10
498.6944997779443
 20
1089.30309646291
 30
0.0
 11
498.6944997779443
 21
919.3030964629096
 31
0.0
  0
LINE
  5
2CD
330
37
100
AcDbEntity
  8
Sichtbar (ISO)
100
AcDbLine
 10
455.5257769097472
 20
1138.638779740849
 30
0.0
 11
498.6944997779443
 21
1089.30309646291
 31
0.0
  0
LINE
  5
2CE
330
37
100
AcDbEntity
  8
Sichtbar (ISO)
100
AcDbLine
 10
98.69449977794436
 20
1089.30309646291
 30
0.0
 11
141.8632226670752
 21
1138.638779764773
 31
0.0
  0
LINE
  5
2CF
330
37
100
AcDbEntity
  8
Sichtbar (ISO)
100
AcDbLine
 10
98.69449977794428
 20
919.3030964629096
 30
0.0
 11
98.69449977794436
 21
1089.30309646291
 31
0.0
  0
LINE
  5
2D0
330
37
100
AcDbEntity
  8
Sichtbar (ISO)
100
AcDbLine
 10
203.6944997779444
 20
799.3030964629097
 30
0.0
 11
98.69449977794428
 21
919.3030964629096
 31
0.0
  0
LINE
  5
2D1
330
37
100
AcDbEntity
  8
Sichtbar (ISO)
100
AcDbLine
 10
233.6944997779212
 20
1266.309798819775
 30
0.0
 11
233.6944997779212
 21
1301.303096462909
 31
0.0
  0
LINE
  5
2D2
330
37
100
AcDbEntity
  8
Sichtbar (ISO)
100
AcDbLine
 10
363.6944997779211
 20
1266.309798804939
 30
0.0
 11
363.6944997779211
 21
1301.303096462909
 31
0.0
  0
LINE
  5
2D3
330
37
100
AcDbEntity
  8
Sichtbar (ISO)
100
AcDbLine
 10
101.1944997776898
 20
1092.160239320052
 30
0.0
 11
101.1944997776898
 21
1123.466849341039
 31
0.0
  0
LINE
  5
2D4
330
37
100
AcDbEntity
  8
Sichtbar (ISO)
100
AcDbLine
 10
496.1944997776899
 20
1123.466849341039
 30
0.0
 11
496.1944997776899
 21
1092.160239320052
 31
0.0
  0
LINE
  5
2D5
330
37
100
AcDbEntity
  8
Sichtbar (ISO)
100
AcDbLine
 10
101.1944997777447
 20
1315.724488981185
 30
0.0
 11
101.1944997777332
 21
1248.43380582046
 31
0.0
  0
LINE
  5
2D6
330
37
100
AcDbEntity
  8
Sichtbar (ISO)
100
AcDbLine
 10
101.1944997777185
 20
1162.966210262127
 30
0.0
 11
101.1944997777118
 21
1123.466849341039
 31
0.0
  0
LINE
  5
2D7
330
37
100
AcDbEntity
  8
Sichtbar (ISO)
100
AcDbLine
 10
141.1944997777143
 20
1137.874525034338
 30
0.0
 11
141.1944997777144
 21
1138.817466605134
 31
0.0
  0
LINE
  5
2D8
330
37
100
AcDbEntity
  8
Sichtbar (ISO)
100
AcDbLine
 10
141.1944997777337
 20
1251.764831058676
 30
0.0
 11
141.1944997777432
 21
1307.064234943341
 31
0.0
  0
LINE
  5
2D9
330
37
100
AcDbEntity
  8
Sichtbar (ISO)
100
AcDbLine
 10
136.1944997777447
 20
1315.724488981185
 30
0.0
 11
101.1944997777447
 21
1315.724488981185
 31
0.0
  0
LINE
  5
2DA
330
37
100
AcDbEntity
  8
Sichtbar (ISO)
100
AcDbLine
 10
101.1944997777118
 20
1123.466849341039
 30
0.0
 11
128.5877835460754
 21
1123.466849341039
 31
0.0
  0
LINE
  5
2DB
330
37
100
AcDbEntity
  8
Sichtbar (ISO)
100
AcDbLine
 10
101.1944997777447
 20
1315.724488981185
 30
0.0
 11
101.1944997777447
 21
1399.30309646291
 31
0.0
  0
LINE
  5
2DC
330
37
100
AcDbEntity
  8
Sichtbar (ISO)
100
AcDbLine
 10
496.1944997777447
 20
1399.30309646291
 30
0.0
 11
496.1944997777447
 21
1315.724488981184
 31
0.0
  0
LINE
  5
2DD
330
37
100
AcDbEntity
  8
Sichtbar (ISO)
100
AcDbLine
 10
461.1944997777446
 20
1399.30309646291
 30
0.0
 11
496.1944997777447
 21
1399.30309646291
 31
0.0
  0
LINE
  5
2DE
330
37
100
AcDbEntity
  8
Sichtbar (ISO)
100
AcDbLine
 10
101.1944997777447
 20
1399.30309646291
 30
0.0
 11
136.1944997777447
 21
1399.30309646291
 31
0.0
  0
LINE
  5
2DF
330
37
100
AcDbEntity
  8
Sichtbar (ISO)
100
AcDbLine
 10
456.1944997777431
 20
1394.303096462909
 30
0.0
 11
461.1944997777446
 21
1399.30309646291
 31
0.0
  0
LINE
  5
2E0
330
37
100
AcDbEntity
  8
Sichtbar (ISO)
100
AcDbLine
 10
456.1944997777431
 20
1307.06423494334
 30
0.0
 11
461.1944997777446
 21
1315.724488981184
 31
0.0
  0
LINE
  5
2E1
330
37
100
AcDbEntity
  8
Sichtbar (ISO)
100
AcDbLine
 10
461.1944997777446
 20
1315.724488981184
 30
0.0
 11
461.1944997777446
 21
1399.30309646291
 31
0.0
  0
LINE
  5
2E2
330
37
100
AcDbEntity
  8
Sichtbar (ISO)
100
AcDbLine
 10
456.1944997777431
 20
1394.303096462909
 30
0.0
 11
456.1944997777431
 21
1307.06423494334
 31
0.0
  0
LINE
  5
2E3
330
37
100
AcDbEntity
  8
Sichtbar (ISO)
100
AcDbLine
 10
136.1944997777447
 20
1399.30309646291
 30
0.0
 11
141.1944997777432
 21
1394.303096462909
 31
0.0
  0
LINE
  5
2E4
330
37
100
AcDbEntity
  8
Sichtbar (ISO)
100
AcDbLine
 10
136.1944997777447
 20
1315.724488981185
 30
0.0
 11
141.1944997777432
 21
1307.064234943341
 31
0.0
  0
LINE
  5
2E5
330
37
100
AcDbEntity
  8
Sichtbar (ISO)
100
AcDbLine
 10
141.1944997777432
 20
1307.064234943341
 30
0.0
 11
141.1944997777432
 21
1394.303096462909
 31
0.0
  0
LINE
  5
2E6
330
37
100
AcDbEntity
  8
Sichtbar (ISO)
100
AcDbLine
 10
136.1944997777447
 20
1399.30309646291
 30
0.0
 11
136.1944997777447
 21
1315.724488981185
 31
0.0
  0
LINE
  5
2E7
330
37
100
AcDbEntity
  8
Sichtbar (ISO)
100
AcDbLine
 10
496.1944997777117
 20
1123.466849341039
 30
0.0
 11
496.1944997777187
 21
1162.966210231996
 31
0.0
  0
LINE
  5
2E8
330
37
100
AcDbEntity
  8
Sichtbar (ISO)
100
AcDbLine
 10
496.1944997777331
 20
1248.433806330713
 30
0.0
 11
496.1944997777447
 21
1315.724488981184
 31
0.0
  0
LINE
  5
2E9
330
37
100
AcDbEntity
  8
Sichtbar (ISO)
100
AcDbLine
 10
496.1944997777447
 20
1315.724488981184
 30
0.0
 11
461.1944997777446
 21
1315.724488981184
 31
0.0
  0
LINE
  5
2EA
330
37
100
AcDbEntity
  8
Sichtbar (ISO)
100
AcDbLine
 10
456.1944997777431
 20
1307.06423494334
 30
0.0
 11
456.1944997777337
 21
1251.764831022726
 31
0.0
  0
LINE
  5
2EB
330
37
100
AcDbEntity
  8
Sichtbar (ISO)
100
AcDbLine
 10
456.1944997777144
 20
1138.817466574862
 30
0.0
 11
456.1944997777143
 21
1137.874525034338
 31
0.0
  0
LINE
  5
2EC
330
37
100
AcDbEntity
  8
Sichtbar (ISO)
100
AcDbLine
 10
468.8012160093482
 20
1123.466849341039
 30
0.0
 11
496.1944997777117
 21
1123.466849341039
 31
0.0
  0
LINE
  5
2ED
330
37
100
AcDbEntity
  8
Sichtbar (ISO)
100
AcDbLine
 10
456.1944997777076
 20
1299.303096462909
 30
0.0
 11
453.6944999314608
 21
1299.303096462909
 31
0.0
  0
LINE
  5
2EE
330
37
100
AcDbEntity
  8
Sichtbar (ISO)
100
AcDbLine
 10
433.6944999314608
 20
1299.303096462909
 30
0.0
 11
363.6944997777076
 21
1299.303096462909
 31
0.0
  0
LINE
  5
2EF
330
37
100
AcDbEntity
  8
Sichtbar (ISO)
100
AcDbLine
 10
233.6944997777076
 20
1299.303096462909
 30
0.0
 11
163.694499931461
 21
1299.303096462909
 31
0.0
  0
LINE
  5
2F0
330
37
100
AcDbEntity
  8
Sichtbar (ISO)
100
AcDbLine
 10
143.6944999314609
 20
1299.303096462909
 30
0.0
 11
141.1944997777077
 21
1299.303096462909
 31
0.0
  0
LINE
  5
2F1
330
37
100
AcDbEntity
  8
Sichtbar (ISO)
100
AcDbLine
 10
461.1944997777076
 20
1399.30309646291
 30
0.0
 11
136.1944997777077
 21
1399.30309646291
 31
0.0
  0
LINE
  5
2F2
330
37
100
AcDbEntity
  8
Sichtbar (ISO)
100
AcDbLine
 10
291.1944997777226
 20
1349.30309646291
 30
0.0
 11
291.1944997777416
 21
1321.303096462909
 31
0.0
  0
LINE
  5
2F3
330
37
100
AcDbEntity
  8
Sichtbar (ISO)
100
AcDbLine
 10
306.1944997777416
 20
1321.30309646291
 30
0.0
 11
306.1944997777226
 21
1349.30309646291
 31
0.0
  0
LINE
  5
2F4
330
37
100
AcDbEntity
  8
Sichtbar (ISO)
100
AcDbLine
 10
291.1944997777226
 20
1349.30309646291
 30
0.0
 11
306.1944997777226
 21
1349.30309646291
 31
0.0
  0
ARC
  5
2F5
330
37
100
AcDbEntity
  8
Sichtbar (ISO)
100
AcDbCircle
 10
298.694500184007
 20
1004.303096462909
 30
0.0
 40
197.5000000000005
100
AcDbArc
 50
141.7031207691298
 51
38.29687936453444
  0
ARC
  5
2F6
330
37
100
AcDbEntity
  8
Sichtbar (ISO)
100
AcDbCircle
 10
423.7671543152707
 20
1126.703387265513
 30
0.0
 40
10.99999999999884
100
AcDbArc
 50
25.51321365139774
 51
41.32822814630607
  0
ARC
  5
2F7
330
37
100
AcDbEntity
  8
Sichtbar (ISO)
100
AcDbCircle
 10
423.7671543152696
 20
1126.703387265512
 30
0.0
 40
11.00000000000003
100
AcDbArc
 50
153.7894163987695
 51
334.486786335524
  0
CIRCLE
  5
2F8
330
37
100
AcDbEntity
  8
Sichtbar (ISO)
100
AcDbCircle
 10
468.2107413817266
 20
1047.768530662935
 30
0.0
 40
11.00000000000003
  0
CIRCLE
  5
2F9
330
37
100
AcDbEntity
  8
Sichtbar (ISO)
100
AcDbCircle
 10
467.232588515295
 20
957.1871460677927
 30
0.0
 40
11.00000000000003
  0
CIRCLE
  5
2FA
330
37
100
AcDbEntity
  8
Sichtbar (ISO)
100
AcDbCircle
 10
421.0947909866098
 20
879.2304423316471
 30
0.0
 40
11.00000000000003
  0
CIRCLE
  5
2FB
330
37
100
AcDbEntity
  8
Sichtbar (ISO)
100
AcDbCircle
 10
342.1599343840325
 20
834.7868552651901
 30
0.0
 40
11.00000000000003
  0
CIRCLE
  5
2FC
330
37
100
AcDbEntity
  8
Sichtbar (ISO)
100
AcDbCircle
 10
251.5785497888902
 20
835.7650081316217
 30
0.0
 40
11.00000000000003
  0
CIRCLE
  5
2FD
330
37
100
AcDbEntity
  8
Sichtbar (ISO)
100
AcDbCircle
 10
173.6218460527444
 20
881.902805660307
 30
0.0
 40
11.00000000000003
  0
CIRCLE
  5
2FE
330
37
100
AcDbEntity
  8
Sichtbar (ISO)
100
AcDbCircle
 10
129.1782589862876
 20
960.8376622628844
 30
0.0
 40
11.00000000000003
  0
CIRCLE
  5
2FF
330
37
100
AcDbEntity
  8
Sichtbar (ISO)
100
AcDbCircle
 10
130.156411852719
 20
1051.419046858026
 30
0.0
 40
11.00000000000003
  0
ARC
  5
300
330
37
100
AcDbEntity
  8
Sichtbar (ISO)
100
AcDbCircle
 10
176.2942093814043
 20
1129.375750594172
 30
0.0
 40
11.00000000000002
100
AcDbArc
 50
156.0925637377124
 51
9.306178986893359
  0
ARC
  5
301
330
37
100
AcDbEntity
  8
Sichtbar (ISO)
100
AcDbCircle
 10
298.6944998730924
 20
1004.30309646291
 30
0.0
 40
131.4000000015403
100
AcDbArc
 50
111.2550889993986
 51
68.74491078380062
  0
ARC
  5
302
330
37
100
AcDbEntity
  8
Sichtbar (ISO)
100
AcDbCircle
 10
298.6944998730924
 20
1004.30309646291
 30
0.0
 40
140.0000000016412
100
AcDbArc
 50
118.2678073702055
 51
61.73219242505631
  0
LINE
  5
303
330
37
100
AcDbEntity
  8
Sichtbar (ISO)
100
AcDbLine
 10
453.6944998846695
 20
1243.933250208417
 30
0.0
 11
453.6945000043679
 21
1384.30309644522
 31
0.0
  0
LINE
  5
304
330
37
100
AcDbEntity
  8
Sichtbar (ISO)
100
AcDbLine
 10
453.6944998846663
 20
1214.417845616476
 30
0.0
 11
453.6944998846695
 21
1243.933250208417
 31
0.0
  0
LINE
  5
305
330
37
100
AcDbEntity
  8
Sichtbar (ISO)
100
AcDbLine
 10
453.6945000273424
 20
1004.30309644522
 30
0.0
 11
453.6945000426199
 21
1138.168496111925
 31
0.0
  0
LINE
  5
306
330
37
100
AcDbEntity
  8
Sichtbar (ISO)
100
AcDbLine
 10
433.6945000043679
 20
1384.303096447503
 30
0.0
 11
453.6945000043679
 21
1384.30309644522
 31
0.0
  0
LINE
  5
307
330
37
100
AcDbEntity
  8
Sichtbar (ISO)
100
AcDbLine
 10
433.6945000315743
 20
1041.384088473493
 30
0.0
 11
433.6945000421703
 21
1134.227961031375
 31
0.0
  0
LINE
  5
308
330
37
100
AcDbEntity
  8
Sichtbar (ISO)
100
AcDbLine
 10
438.694499874661
 20
1004.303096446932
 30
0.0
 11
453.6945000273424
 21
1004.30309644522
 31
0.0
  0
LINE
  5
309
330
37
100
AcDbEntity
  8
Sichtbar (ISO)
100
AcDbLine
 10
433.6944998846663
 20
1214.417845618759
 30
0.0
 11
453.6944998846663
 21
1214.417845616476
 31
0.0
  0
LINE
  5
30A
330
37
100
AcDbEntity
  8
Sichtbar (ISO)
100
AcDbLine
 10
433.6944998846695
 20
1243.933250210699
 30
0.0
 11
453.6944998846695
 21
1243.933250208417
 31
0.0
  0
LINE
  5
30B
330
37
100
AcDbEntity
  8
Sichtbar (ISO)
100
AcDbLine
 10
433.6944998846663
 20
1214.417845618759
 30
0.0
 11
433.6944998846695
 21
1243.933250210699
 31
0.0
  0
LINE
  5
30C
330
37
100
AcDbEntity
  8
Sichtbar (ISO)
100
AcDbLine
 10
433.6944998846695
 20
1243.933250210699
 30
0.0
 11
433.6945000043679
 21
1384.303096447503
 31
0.0
  0
LINE
  5
30D
330
37
100
AcDbEntity
  8
Sichtbar (ISO)
100
AcDbLine
 10
143.6945000043681
 20
1384.3030964806
 30
0.0
 11
163.6945000043681
 21
1384.303096478318
 31
0.0
  0
LINE
  5
30E
330
37
100
AcDbEntity
  8
Sichtbar (ISO)
100
AcDbLine
 10
163.6945000315745
 20
1041.384089334808
 30
0.0
 11
163.6945000421704
 21
1134.227960962955
 31
0.0
  0
LINE
  5
30F
330
37
100
AcDbEntity
  8
Sichtbar (ISO)
100
AcDbLine
 10
143.6945000273425
 20
1004.303096480599
 30
0.0
 11
143.6945000426202
 21
1138.168496007272
 31
0.0
  0
LINE
  5
310
330
37
100
AcDbEntity
  8
Sichtbar (ISO)
100
AcDbLine
 10
143.6945000273425
 20
1004.303096480599
 30
0.0
 11
158.6944998713777
 21
1004.303096478887
 31
0.0
  0
LINE
  5
311
330
37
100
AcDbEntity
  8
Sichtbar (ISO)
100
AcDbLine
 10
143.6944998846665
 20
1214.417845651856
 30
0.0
 11
163.6944998846665
 21
1214.417845649573
 31
0.0
  0
LINE
  5
312
330
37
100
AcDbEntity
  8
Sichtbar (ISO)
100
AcDbLine
 10
163.6944998846665
 20
1214.417845649573
 30
0.0
 11
163.6944998846696
 21
1243.933250241514
 31
0.0
  0
LINE
  5
313
330
37
100
AcDbEntity
  8
Sichtbar (ISO)
100
AcDbLine
 10
143.6944998846696
 20
1243.933250243796
 30
0.0
 11
163.6944998846696
 21
1243.933250241514
 31
0.0
  0
LINE
  5
314
330
37
100
AcDbEntity
  8
Sichtbar (ISO)
100
AcDbLine
 10
143.6944998846665
 20
1214.417845651856
 30
0.0
 11
143.6944998846696
 21
1243.933250243796
 31
0.0
  0
LINE
  5
315
330
37
100
AcDbEntity
  8
Sichtbar (ISO)
100
AcDbLine
 10
163.6944998846696
 20
1243.933250241514
 30
0.0
 11
163.6945000043681
 21
1384.303096478318
 31
0.0
  0
LINE
  5
316
330
37
100
AcDbEntity
  8
Sichtbar (ISO)
100
AcDbLine
 10
143.6944998846696
 20
1243.933250243796
 30
0.0
 11
143.6945000043681
 21
1384.3030964806
 31
0.0
  0
ELLIPSE
  5
317
330
37
100
AcDbEntity
  8
Sichtbar (ISO)
100
AcDbEllipse
 10
298.6945001685171
 20
1323.705645936093
 30
0.0
 11
-465.6249999999999
 21
0.0000000000489786
 31
0.0
210
0.0
220
0.0
230
0.9999999999999998
 40
0.1790123886900117
 41
1.276639615381143
 42
1.864953036934753
  0
LINE
  5
318
330
37
100
AcDbEntity
  8
Sichtbar (ISO)
100
AcDbLine
 10
163.6944998846695
 20
1243.933250241513
 30
0.0
 11
163.6944998846663
 21
1214.417845649572
 31
0.0
  0
ELLIPSE
  5
319
330
37
100
AcDbEntity
  8
Sichtbar (ISO)
100
AcDbEllipse
 10
298.6945001685139
 20
1294.190241344152
 30
0.0
 11
-465.6249999999999
 21
0.0000000000489786
 31
0.0
210
0.0
220
0.0
230
0.9999999999999998
 40
0.1790123886900117
 41
1.276639615381143
 42
1.864953036934753
  0
LINE
  5
31A
330
37
100
AcDbEntity
  8
Sichtbar (ISO)
100
AcDbLine
 10
433.6944998846695
 20
1243.933250210699
 30
0.0
 11
433.6944998846663
 21
1214.417845618758
 31
0.0
  0
ELLIPSE
  5
31B
330
37
100
AcDbEntity
  8
Sichtbar (ISO)
100
AcDbEllipse
 10
298.6944998974088
 20
1247.513497999906
 30
0.0
 11
10.49999999999999
 21
-0.0000000011983299
 31
0.0
210
0.0
220
0.0
230
1.0
 40
0.1790123886900118
 41
3.141592692068723
 42
6.283185345658518
  0
LINE
  5
31C
330
37
100
AcDbEntity
  8
Sichtbar (ISO)
100
AcDbLine
 10
433.6944999642901
 20
1266.309798796951
 30
0.0
 11
309.1944998973787
 21
1266.309798811159
 31
0.0
  0
LINE
  5
31D
330
37
100
AcDbEntity
  8
Sichtbar (ISO)
100
AcDbLine
 10
288.1944998973787
 20
1266.309798813556
 30
0.0
 11
163.6944999642901
 21
1266.309798827765
 31
0.0
  0
ELLIPSE
  5
31E
330
37
100
AcDbEntity
  8
Sichtbar (ISO)
100
AcDbEllipse
 10
298.6944998506574
 20
1148.798800251026
 30
0.0
 11
175.0
 21
-0.0000000199721982
 31
0.0
210
0.0
220
0.0
230
1.0
 40
0.1308499992486681
 41
3.14159271516815
 42
6.283185368757942
  0
LINE
  5
31F
330
37
100
AcDbEntity
  8
Sichtbar (ISO)
100
AcDbLine
 10
473.6944998506573
 20
1148.798800231054
 30
0.0
 11
473.694499851375
 21
1159.635185261975
 31
0.0
  0
ELLIPSE
  5
320
330
37
100
AcDbEntity
  8
Sichtbar (ISO)
100
AcDbEllipse
 10
298.6944998519781
 20
1168.740622182095
 30
0.0
 11
175.0
 21
-0.0000000199721982
 31
0.0
210
0.0
220
0.0
230
1.0
 40
0.1308499992486681
 41
3.550311730316123
 42
5.874466333479132
  0
LINE
  5
321
330
37
100
AcDbEntity
  8
Sichtbar (ISO)
100
AcDbLine
 10
123.6944998513751
 20
1159.635185301919
 30
0.0
 11
123.6944998506575
 21
1148.798800270999
 31
0.0
  0
ELLIPSE
  5
322
330
37
100
AcDbEntity
  8
Sichtbar (ISO)
100
AcDbEllipse
 10
486.1944997779728
 20
1172.135185260548
 30
0.0
 11
-9.597413322347748
 21
9.597413357592882
 31
0.0
210
0.0
220
0.0
230
0.9999999999999998
 40
0.8344669055702759
 41
2.446185758488034
 42
5.407795878987085
  0
ELLIPSE
  5
323
330
37
100
AcDbEntity
  8
Sichtbar (ISO)
100
AcDbEllipse
 10
486.1945000168344
 20
1239.264831019302
 30
0.0
 11
9.597413362612318
 21
9.597413327365767
 31
0.0
210
0.0
220
0.0
230
1.0
 40
0.8344669057605692
 41
5.587778408575651
 42
7.158574738872831
  0
ELLIPSE
  5
324
330
37
100
AcDbEntity
  8
Sichtbar (ISO)
100
AcDbEllipse
 10
111.1944997779738
 20
1172.135185303346
 30
0.0
 11
9.597413362611261
 21
9.597413327366753
 31
0.0
210
0.0
220
0.0
230
1.0
 40
0.8344669057605692
 41
0.875389431693109
 42
3.836999552192165
  0
ELLIPSE
  5
325
330
37
100
AcDbEntity
  8
Sichtbar (ISO)
100
AcDbEllipse
 10
111.1945000168354
 20
1239.2648310621
 30
0.0
 11
-9.597413322348598
 21
9.597413357592033
 31
0.0
210
0.0
220
0.0
230
1.0
 40
0.8344669055702759
 41
5.407795878986965
 42
6.978592202279554
  0
LINE
  5
326
330
37
100
AcDbEntity
  8
Sichtbar (ISO)
100
AcDbLine
 10
498.6945000247965
 20
1241.50248583343
 30
0.0
 11
498.6944997700109
 21
1169.897530357425
 31
0.0
  0
LINE
  5
327
330
37
100
AcDbEntity
  8
Sichtbar (ISO)
100
AcDbLine
 10
488.4321546351713
 20
1159.635185260293
 30
0.0
 11
459.3657659146065
 21
1159.63518526361
 31
0.0
  0
LINE
  5
328
330
37
100
AcDbEntity
  8
Sichtbar (ISO)
100
AcDbLine
 10
138.0232336384874
 20
1159.635185300284
 30
0.0
 11
108.9568449179222
 21
1159.635185303601
 31
0.0
  0
LINE
  5
329
330
37
100
AcDbEntity
  8
Sichtbar (ISO)
100
AcDbLine
 10
98.69449977001188
 20
1169.897530489218
 30
0.0
 11
98.69450002479759
 21
1241.502485965223
 31
0.0
  0
LINE
  5
32A
330
37
100
AcDbEntity
  8
Sichtbar (ISO)
100
AcDbLine
 10
108.9568451596369
 20
1251.764831062355
 30
0.0
 11
143.6944998912884
 21
1251.764831058391
 31
0.0
  0
LINE
  5
32B
330
37
100
AcDbEntity
  8
Sichtbar (ISO)
100
AcDbLine
 10
453.6944998912876
 20
1251.764831023012
 30
0.0
 11
488.4321548768863
 21
1251.764831019047
 31
0.0
  0
ELLIPSE
  5
32C
330
37
100
AcDbEntity
  8
Sichtbar (ISO)
100
AcDbEllipse
 10
298.6944998974108
 20
1267.190434394534
 30
0.0
 11
7.499999999999981
 21
-0.0000000008559503
 31
0.0
210
0.0
220
0.0
230
0.9999999999999998
 40
0.1790123886900117
 41
0.0000000192394089
 42
6.283185307179584
  0
ELLIPSE
  5
32D
330
37
100
AcDbEntity
  8
Sichtbar (ISO)
100
AcDbEllipse
 10
298.6944998974108
 20
1267.190434394534
 30
0.0
 11
10.49999999999997
 21
-0.0000000011983305
 31
0.0
210
0.0
220
0.0
230
1.0
 40
0.1790123886900117
 41
0.0000000192393485
 42
6.283185307179584
  0
LINE
  5
32E
330
37
100
AcDbEntity
  8
Sichtbar (ISO)
100
AcDbLine
 10
288.1944998974087
 20
1247.513497999907
 30
0.0
 11
288.1944998974108
 21
1267.190434394534
 31
0.0
  0
LINE
  5
32F
330
37
100
AcDbEntity
  8
Sichtbar (ISO)
100
AcDbLine
 10
309.1944998974087
 20
1247.513497999906
 30
0.0
 11
309.1944998974108
 21
1267.190434394533
 31
0.0
  0
LINE
  5
330
330
37
100
AcDbEntity
  8
Sichtbar (ISO)
100
AcDbLine
 10
2884.436104159761
 20
799.3030964629097
 30
0.0
 11
2779.436104159761
 21
919.3030964629096
 31
0.0
  0
LINE
  5
331
330
37
100
AcDbEntity
  8
Sichtbar (ISO)
100
AcDbLine
 10
3074.43610415976
 20
799.3030964629097
 30
0.0
 11
2884.436104159761
 21
799.3030964629097
 31
0.0
  0
LINE
  5
332
330
37
100
AcDbEntity
  8
Sichtbar (ISO)
100
AcDbLine
 10
3179.436104159761
 20
919.3030964629096
 30
0.0
 11
3074.43610415976
 21
799.3030964629097
 31
0.0
  0
LINE
  5
333
330
37
100
AcDbEntity
  8
Sichtbar (ISO)
100
AcDbLine
 10
3179.436104159761
 20
1089.30309646291
 30
0.0
 11
3179.436104159761
 21
919.3030964629096
 31
0.0
  0
LINE
  5
334
330
37
100
AcDbEntity
  8
Sichtbar (ISO)
100
AcDbLine
 10
3176.936104159761
 20
1092.160239320052
 30
0.0
 11
3179.436104159761
 21
1089.30309646291
 31
0.0
  0
LINE
  5
335
330
37
100
AcDbEntity
  8
Sichtbar (ISO)
100
AcDbLine
 10
2779.436104159761
 20
1089.30309646291
 30
0.0
 11
2781.93610415976
 21
1092.160239320052
 31
0.0
  0
LINE
  5
336
330
37
100
AcDbEntity
  8
Sichtbar (ISO)
100
AcDbLine
 10
2779.436104159761
 20
919.3030964629096
 30
0.0
 11
2779.436104159761
 21
1089.30309646291
 31
0.0
  0
LINE
  5
337
330
37
100
AcDbEntity
  8
Sichtbar (ISO)
100
AcDbLine
 10
3176.936104159535
 20
1201.80309646291
 30
0.0
 11
2781.936104159535
 21
1201.80309646291
 31
0.0
  0
LINE
  5
338
330
37
100
AcDbEntity
  8
Sichtbar (ISO)
100
AcDbLine
 10
2781.936104159544
 20
1399.30309646291
 30
0.0
 11
3176.936104159544
 21
1399.30309646291
 31
0.0
  0
LINE
  5
339
330
37
100
AcDbEntity
  8
Sichtbar (ISO)
100
AcDbLine
 10
2781.936104159544
 20
1201.80309646291
 30
0.0
 11
2781.936104159544
 21
1399.30309646291
 31
0.0
  0
LINE
  5
33A
330
37
100
AcDbEntity
  8
Sichtbar (ISO)
100
AcDbLine
 10
3176.936104159544
 20
1399.30309646291
 30
0.0
 11
3176.936104159544
 21
1201.80309646291
 31
0.0
  0
LINE
  5
33B
330
37
100
AcDbEntity
  8
Sichtbar (ISO)
100
AcDbLine
 10
3176.936104159535
 20
1004.303096462909
 30
0.0
 11
3176.936104159535
 21
1201.80309646291
 31
0.0
  0
LINE
  5
33C
330
37
100
AcDbEntity
  8
Sichtbar (ISO)
100
AcDbLine
 10
2781.936104159535
 20
1201.80309646291
 30
0.0
 11
2781.936104159535
 21
1004.30309646291
 31
0.0
  0
ARC
  5
33D
330
37
100
AcDbEntity
  8
Sichtbar (ISO)
100
AcDbCircle
 10
2979.436104159535
 20
1004.303096462909
 30
0.0
 40
197.4999999999999
100
AcDbArc
 50
180.0
 51
0.0
  0
CIRCLE
  5
33E
330
37
100
AcDbEntity
  8
Sichtbar (ISO)
100
AcDbCircle
 10
2855.692417451889
 20
1128.046783170556
 30
0.0
 40
11.0
  0
CIRCLE
  5
33F
330
37
100
AcDbEntity
  8
Sichtbar (ISO)
100
AcDbCircle
 10
2934.142771266594
 20
1173.340116063497
 30
0.0
 40
11.0
  0
CIRCLE
  5
340
330
37
100
AcDbEntity
  8
Sichtbar (ISO)
100
AcDbCircle
 10
3024.729437052476
 20
1173.340116063497
 30
0.0
 40
11.0
  0
CIRCLE
  5
341
330
37
100
AcDbEntity
  8
Sichtbar (ISO)
100
AcDbCircle
 10
3103.17979086718
 20
1128.046783170555
 30
0.0
 40
11.0
  0
CIRCLE
  5
342
330
37
100
AcDbEntity
  8
Sichtbar (ISO)
100
AcDbCircle
 10
3148.473123760123
 20
1049.59642935585
 30
0.0
 40
11.0
  0
CIRCLE
  5
343
330
37
100
AcDbEntity
  8
Sichtbar (ISO)
100
AcDbCircle
 10
3148.473123760123
 20
959.0097635699684
 30
0.0
 40
11.0
  0
CIRCLE
  5
344
330
37
100
AcDbEntity
  8
Sichtbar (ISO)
100
AcDbCircle
 10
3103.17979086718
 20
880.5594097552638
 30
0.0
 40
11.0
  0
CIRCLE
  5
345
330
37
100
AcDbEntity
  8
Sichtbar (ISO)
100
AcDbCircle
 10
3024.729437052476
 20
835.2660768623227
 30
0.0
 40
11.0
  0
CIRCLE
  5
346
330
37
100
AcDbEntity
  8
Sichtbar (ISO)
100
AcDbCircle
 10
2934.142771266593
 20
835.2660768623229
 30
0.0
 40
11.0
  0
CIRCLE
  5
347
330
37
100
AcDbEntity
  8
Sichtbar (ISO)
100
AcDbCircle
 10
2855.692417451889
 20
880.5594097552638
 30
0.0
 40
11.0
  0
CIRCLE
  5
348
330
37
100
AcDbEntity
  8
Sichtbar (ISO)
100
AcDbCircle
 10
2810.399084558948
 20
959.0097635699684
 30
0.0
 40
11.0
  0
CIRCLE
  5
349
330
37
100
AcDbEntity
  8
Sichtbar (ISO)
100
AcDbCircle
 10
2810.399084558948
 20
1049.596429355851
 30
0.0
 40
11.0
  0
CIRCLE
  5
34A
330
37
100
AcDbEntity
  8
Sichtbar (ISO)
100
AcDbCircle
 10
2979.436104159535
 20
1004.30309646291
 30
0.0
 40
129.0
  0
LINE
  5
34B
330
37
100
AcDbEntity
  8
Sichtbar (ISO)
100
AcDbLine
 10
3159.436104159556
 20
1048.694730535795
 30
0.0
 11
3159.436104159556
 21
1050.498128175906
 31
0.0
  0
LINE
  5
34C
330
37
100
AcDbEntity
  8
Sichtbar (ISO)
100
AcDbLine
 10
2799.436104159556
 20
1050.498128175904
 30
0.0
 11
2799.436104159556
 21
1048.694730535797
 31
0.0
  0
ARC
  5
34D
330
37
100
AcDbEntity
  8
Sichtbar (ISO)
100
AcDbCircle
 10
2979.436104159539
 20
1004.303096462914
 30
0.0
 40
180.0000000000171
100
AcDbArc
 50
341.8365706769261
 51
348.1634293230741
  0
ARC
  5
34E
330
37
100
AcDbEntity
  8
Sichtbar (ISO)
100
AcDbCircle
 10
2979.436104159552
 20
1004.303096462913
 30
0.0
 40
180.0000000000048
100
AcDbArc
 50
311.8365706769257
 51
318.1634293230741
  0
ARC
  5
34F
330
37
100
AcDbEntity
  8
Sichtbar (ISO)
100
AcDbCircle
 10
2979.436104159558
 20
1004.303096462901
 30
0.0
 40
179.9999999999913
100
AcDbArc
 50
281.8365706769254
 51
288.1634293230743
  0
ARC
  5
350
330
37
100
AcDbEntity
  8
Sichtbar (ISO)
100
AcDbCircle
 10
2979.43610415955
 20
1004.303096462893
 30
0.0
 40
179.9999999999831
100
AcDbArc
 50
251.8365706769253
 51
258.1634293230746
  0
ARC
  5
351
330
37
100
AcDbEntity
  8
Sichtbar (ISO)
100
AcDbCircle
 10
2979.436104159559
 20
1004.303096462914
 30
0.0
 40
180.000000000006
100
AcDbArc
 50
221.8365706769258
 51
228.1634293230741
  0
ARC
  5
352
330
37
100
AcDbEntity
  8
Sichtbar (ISO)
100
AcDbCircle
 10
2979.436104159565
 20
1004.303096462912
 30
0.0
 40
180.0000000000098
100
AcDbArc
 50
191.8365706769259
 51
198.1634293230741
  0
ELLIPSE
  5
353
330
37
100
AcDbEntity
  8
Sichtbar (ISO)
100
AcDbEllipse
 10
2979.43610408753
 20
1148.798800251026
 30
0.0
 11
-175.0
 21
-0.0000000199721982
 31
0.0
210
0.0
220
0.0
230
1.0
 40
0.1308499992486681
 41
1.33308492107115
 42
1.808507728379835
  0
ELLIPSE
  5
354
330
37
100
AcDbEntity
  8
Sichtbar (ISO)
100
AcDbEllipse
 10
2791.936104160285
 20
1172.135185260548
 30
0.0
 11
9.597413322329726
 21
9.597413357606155
 31
0.0
210
0.0
220
0.0
230
1.0
 40
0.8344669055701857
 41
2.446185758488023
 42
3.089686862899271
  0
ELLIPSE
  5
355
330
37
100
AcDbEntity
  8
Sichtbar (ISO)
100
AcDbEllipse
 10
2791.936103921205
 20
1239.264831019302
 30
0.0
 11
-9.597413362630343
 21
9.597413327352498
 31
0.0
210
0.0
220
0.0
230
1.0
 40
0.8344669057606591
 41
0.0519057536241325
 42
1.338908036575735
  0
ELLIPSE
  5
356
330
37
100
AcDbEntity
  8
Sichtbar (ISO)
100
AcDbEllipse
 10
3166.936104160285
 20
1172.135185303346
 30
0.0
 11
-9.597413362629289
 21
9.597413327353482
 31
0.0
210
0.0
220
0.0
230
1.0
 40
0.8344669057606591
 41
3.193498439016881
 42
3.8369995521922
  0
ELLIPSE
  5
357
330
37
100
AcDbEntity
  8
Sichtbar (ISO)
100
AcDbEllipse
 10
3166.936103921205
 20
1239.2648310621
 30
0.0
 11
9.597413322330575
 21
9.597413357605306
 31
0.0
210
0.0
220
0.0
230
1.0
 40
0.834466905570186
 41
4.944277332464733
 42
6.231279484686456
  0
LINE
  5
358
330
37
100
AcDbEntity
  8
Sichtbar (ISO)
100
AcDbLine
 10
2779.436103913236
 20
1241.50248583343
 30
0.0
 11
2779.436104168255
 21
1169.897530357425
 31
0.0
  0
LINE
  5
359
330
37
100
AcDbEntity
  8
Sichtbar (ISO)
100
AcDbLine
 10
3179.436104168254
 20
1169.897530489218
 30
0.0
 11
3179.436103913235
 21
1241.502485965223
 31
0.0
  0
CIRCLE
  5
35A
330
37
100
AcDbEntity
  8
Sichtbar (ISO)
100
AcDbCircle
 10
1500.910556570501
 20
377.4837561977076
 30
0.0
 40
62.5
  0
CIRCLE
  5
35B
330
37
100
AcDbEntity
  8
Sichtbar (ISO)
100
AcDbCircle
 10
1500.910556570501
 20
377.4837561977017
 30
0.0
 40
65.0
  0
LINE
  5
35C
330
37
100
AcDbEntity
  8
Sichtbar (ISO)
100
AcDbLine
 10
1699.910556570501
 20
574.9837561976137
 30
0.0
 11
1699.910556570501
 21
179.9837561976137
 31
0.0
  0
LINE
  5
35D
330
37
100
AcDbEntity
  8
Sichtbar (ISO)
100
AcDbLine
 10
1725.910556570501
 20
466.4275958422126
 30
0.0
 11
1725.910556570501
 21
574.9837561976136
 31
0.0
  0
LINE
  5
35E
330
37
100
AcDbEntity
  8
Sichtbar (ISO)
100
AcDbLine
 10
1725.910556570501
 20
179.9837561976136
 30
0.0
 11
1725.910556570501
 21
292.3686336731595
 31
0.0
  0
LINE
  5
35F
330
37
100
AcDbEntity
  8
Sichtbar (ISO)
100
AcDbLine
 10
1699.910556570501
 20
574.9837561976136
 30
0.0
 11
1725.910556570501
 21
574.9837561976136
 31
0.0
  0
LINE
  5
360
330
37
100
AcDbEntity
  8
Sichtbar (ISO)
100
AcDbLine
 10
1699.910556570501
 20
179.9837561976136
 30
0.0
 11
1725.910556570501
 21
179.9837561976136
 31
0.0
  0
LINE
  5
361
330
37
100
AcDbEntity
  8
Sichtbar (ISO)
100
AcDbLine
 10
1699.910556570501
 20
240.9837561976136
 30
0.0
 11
1578.910556570501
 21
240.9837561976136
 31
0.0
  0
LINE
  5
362
330
37
100
AcDbEntity
  8
Sichtbar (ISO)
100
AcDbLine
 10
1699.910556570501
 20
513.9837561976137
 30
0.0
 11
1578.910556570501
 21
513.9837561976137
 31
0.0
  0
LINE
  5
363
330
37
100
AcDbEntity
  8
Sichtbar (ISO)
100
AcDbLine
 10
1578.910556570501
 20
472.4837561976744
 30
0.0
 11
1578.910556570501
 21
577.4837561976387
 31
0.0
  0
LINE
  5
364
330
37
100
AcDbEntity
  8
Sichtbar (ISO)
100
AcDbLine
 10
1578.910556570501
 20
282.4837561976744
 30
0.0
 11
1578.910556570501
 21
472.4837561976744
 31
0.0
  0
LINE
  5
365
330
37
100
AcDbEntity
  8
Sichtbar (ISO)
100
AcDbLine
 10
1578.910556570501
 20
177.4837561976388
 30
0.0
 11
1578.910556570501
 21
282.4837561976744
 31
0.0
  0
LINE
  5
366
330
37
100
AcDbEntity
  8
Sichtbar (ISO)
100
AcDbLine
 10
1422.910556570501
 20
282.4837561976744
 30
0.0
 11
1422.910556570501
 21
177.4837561976388
 31
0.0
  0
LINE
  5
367
330
37
100
AcDbEntity
  8
Sichtbar (ISO)
100
AcDbLine
 10
1422.910556570501
 20
472.4837561976744
 30
0.0
 11
1422.910556570501
 21
282.4837561976744
 31
0.0
  0
LINE
  5
368
330
37
100
AcDbEntity
  8
Sichtbar (ISO)
100
AcDbLine
 10
1422.910556570501
 20
577.4837561976387
 30
0.0
 11
1422.910556570501
 21
472.4837561976744
 31
0.0
  0
LINE
  5
369
330
37
100
AcDbEntity
  8
Sichtbar (ISO)
100
AcDbLine
 10
1578.910556570501
 20
577.4837561976387
 30
0.0
 11
1422.910556570501
 21
577.4837561976387
 31
0.0
  0
LINE
  5
36A
330
37
100
AcDbEntity
  8
Sichtbar (ISO)
100
AcDbLine
 10
1578.910556570501
 20
472.4837561976744
 30
0.0
 11
1422.910556570501
 21
472.4837561976744
 31
0.0
  0
LINE
  5
36B
330
37
100
AcDbEntity
  8
Sichtbar (ISO)
100
AcDbLine
 10
1578.910556570501
 20
282.4837561976744
 30
0.0
 11
1422.910556570501
 21
282.4837561976744
 31
0.0
  0
LINE
  5
36C
330
37
100
AcDbEntity
  8
Sichtbar (ISO)
100
AcDbLine
 10
1578.910556570501
 20
177.4837561976388
 30
0.0
 11
1422.910556570501
 21
177.4837561976388
 31
0.0
  0
LINE
  5
36D
330
37
100
AcDbEntity
  8
Sichtbar (ISO)
100
AcDbLine
 10
1301.910556570501
 20
574.9837561976137
 30
0.0
 11
1301.910556570501
 21
179.9837561976137
 31
0.0
  0
LINE
  5
36E
330
37
100
AcDbEntity
  8
Sichtbar (ISO)
100
AcDbLine
 10
1275.910556570501
 20
463.1460969028534
 30
0.0
 11
1275.910556570501
 21
574.9837561976137
 31
0.0
  0
LINE
  5
36F
330
37
100
AcDbEntity
  8
Sichtbar (ISO)
100
AcDbLine
 10
1275.910556570501
 20
179.9837561976137
 30
0.0
 11
1275.910556570501
 21
291.8214154924799
 31
0.0
  0
LINE
  5
370
330
37
100
AcDbEntity
  8
Sichtbar (ISO)
100
AcDbLine
 10
1275.910556570501
 20
574.9837561976136
 30
0.0
 11
1301.910556570501
 21
574.9837561976136
 31
0.0
  0
LINE
  5
371
330
37
100
AcDbEntity
  8
Sichtbar (ISO)
100
AcDbLine
 10
1275.910556570501
 20
179.9837561976136
 30
0.0
 11
1301.910556570501
 21
179.9837561976136
 31
0.0
  0
LINE
  5
372
330
37
100
AcDbEntity
  8
Sichtbar (ISO)
100
AcDbLine
 10
1422.910556570501
 20
240.9837561976136
 30
0.0
 11
1301.910556570501
 21
240.9837561976136
 31
0.0
  0
LINE
  5
373
330
37
100
AcDbEntity
  8
Sichtbar (ISO)
100
AcDbLine
 10
1422.910556570501
 20
513.9837561976137
 30
0.0
 11
1301.910556570501
 21
513.9837561976137
 31
0.0
  0
LINE
  5
374
330
37
100
AcDbEntity
  8
Sichtbar (ISO)
100
AcDbLine
 10
660.9105565705007
 20
574.9837561976724
 30
0.0
 11
690.9105565705008
 21
574.9837561976724
 31
0.0
  0
LINE
  5
375
330
37
100
AcDbEntity
  8
Sichtbar (ISO)
100
AcDbLine
 10
660.9105565705007
 20
179.9837561976723
 30
0.0
 11
660.9105565705007
 21
574.9837561976723
 31
0.0
  0
LINE
  5
376
330
37
100
AcDbEntity
  8
Sichtbar (ISO)
100
AcDbLine
 10
690.9105565705008
 20
179.9837561976723
 30
0.0
 11
660.9105565705007
 21
179.9837561976723
 31
0.0
  0
LINE
  5
377
330
37
100
AcDbEntity
  8
Sichtbar (ISO)
100
AcDbLine
 10
690.9105565705008
 20
574.9837561977308
 30
0.0
 11
690.9105565705008
 21
179.9837561977309
 31
0.0
  0
LINE
  5
378
330
37
100
AcDbEntity
  8
Sichtbar (ISO)
100
AcDbLine
 10
690.9105565705008
 20
179.9837561977309
 30
0.0
 11
720.9105565705008
 21
179.9837561977309
 31
0.0
  0
LINE
  5
379
330
37
100
AcDbEntity
  8
Sichtbar (ISO)
100
AcDbLine
 10
720.9105565705008
 20
179.9837561977309
 30
0.0
 11
720.9105565705008
 21
574.9837561977308
 31
0.0
  0
LINE
  5
37A
330
37
100
AcDbEntity
  8
Sichtbar (ISO)
100
AcDbLine
 10
690.9105565705008
 20
574.9837561977308
 30
0.0
 11
720.9105565705008
 21
574.9837561977308
 31
0.0
  0
LINE
  5
37B
330
37
100
AcDbEntity
  8
Sichtbar (ISO)
100
AcDbLine
 10
835.9105565705007
 20
179.9837561977309
 30
0.0
 11
905.9105565705008
 21
179.9837561977309
 31
0.0
  0
LINE
  5
37C
330
37
100
AcDbEntity
  8
Sichtbar (ISO)
100
AcDbLine
 10
835.9105565705007
 20
574.9837561977308
 30
0.0
 11
905.9105565705008
 21
574.9837561977308
 31
0.0
  0
LINE
  5
37D
330
37
100
AcDbEntity
  8
Sichtbar (ISO)
100
AcDbLine
 10
830.9105565705008
 20
179.9837561977294
 30
0.0
 11
835.9105565705007
 21
179.9837561977309
 31
0.0
  0
LINE
  5
37E
330
37
100
AcDbEntity
  8
Sichtbar (ISO)
100
AcDbLine
 10
835.9105565705007
 20
539.9837561977308
 30
0.0
 11
830.9105565705008
 21
539.9837561977293
 31
0.0
  0
LINE
  5
37F
330
37
100
AcDbEntity
  8
Sichtbar (ISO)
100
AcDbLine
 10
835.9105565705007
 20
534.9837561977293
 30
0.0
 11
830.9105565705008
 21
539.9837561977293
 31
0.0
  0
LINE
  5
380
330
37
100
AcDbEntity
  8
Sichtbar (ISO)
100
AcDbLine
 10
835.9105565705007
 20
534.9837561977293
 30
0.0
 11
835.9105565705007
 21
539.9837561977308
 31
0.0
  0
LINE
  5
381
330
37
100
AcDbEntity
  8
Sichtbar (ISO)
100
AcDbLine
 10
830.9105565705008
 20
534.9837561977092
 30
0.0
 11
835.9105565705007
 21
534.9837561977159
 31
0.0
  0
LINE
  5
382
330
37
100
AcDbEntity
  8
Sichtbar (ISO)
100
AcDbLine
 10
720.9105565705008
 20
534.9837561976996
 30
0.0
 11
730.9105565705008
 21
534.9837561976996
 31
0.0
  0
LINE
  5
383
330
37
100
AcDbEntity
  8
Sichtbar (ISO)
100
AcDbLine
 10
730.9105565705008
 20
539.9837561977014
 30
0.0
 11
720.9105565705008
 21
539.9837561977014
 31
0.0
  0
LINE
  5
384
330
37
100
AcDbEntity
  8
Sichtbar (ISO)
100
AcDbLine
 10
905.9105565705008
 20
539.9837561977308
 30
0.0
 11
835.9105565705007
 21
539.9837561977308
 31
0.0
  0
LINE
  5
385
330
37
100
AcDbEntity
  8
Sichtbar (ISO)
100
AcDbLine
 10
835.9105565705007
 20
534.9837561977293
 30
0.0
 11
900.9105565705008
 21
534.9837561977293
 31
0.0
  0
LINE
  5
386
330
37
100
AcDbEntity
  8
Sichtbar (ISO)
100
AcDbLine
 10
900.9105565705008
 20
534.9837561977293
 30
0.0
 11
905.9105565705008
 21
539.9837561977308
 31
0.0
  0
LINE
  5
387
330
37
100
AcDbEntity
  8
Sichtbar (ISO)
100
AcDbLine
 10
835.9105565705007
 20
574.9837561977308
 30
0.0
 11
830.9105565705008
 21
574.9837561977293
 31
0.0
  0
LINE
  5
388
330
37
100
AcDbEntity
  8
Sichtbar (ISO)
100
AcDbLine
 10
830.9105565705008
 20
574.9837561977293
 30
0.0
 11
830.9105565705008
 21
539.9837561977293
 31
0.0
  0
LINE
  5
389
330
37
100
AcDbEntity
  8
Sichtbar (ISO)
100
AcDbLine
 10
835.9105565705007
 20
539.9837561977308
 30
0.0
 11
835.9105565705007
 21
574.9837561977308
 31
0.0
  0
LINE
  5
38A
330
37
100
AcDbEntity
  8
Sichtbar (ISO)
100
AcDbLine
 10
835.9105565705007
 20
214.9837561977309
 30
0.0
 11
835.9105565705007
 21
219.9837561977294
 31
0.0
  0
LINE
  5
38B
330
37
100
AcDbEntity
  8
Sichtbar (ISO)
100
AcDbLine
 10
830.9105565705008
 20
214.9837561977294
 30
0.0
 11
835.9105565705007
 21
219.9837561977294
 31
0.0
  0
LINE
  5
38C
330
37
100
AcDbEntity
  8
Sichtbar (ISO)
100
AcDbLine
 10
830.9105565705008
 20
214.9837561977294
 30
0.0
 11
835.9105565705007
 21
214.9837561977309
 31
0.0
  0
LINE
  5
38D
330
37
100
AcDbEntity
  8
Sichtbar (ISO)
100
AcDbLine
 10
835.9105565705004
 20
219.9837561977162
 30
0.0
 11
830.9105565705008
 21
219.9837561977094
 31
0.0
  0
LINE
  5
38E
330
37
100
AcDbEntity
  8
Sichtbar (ISO)
100
AcDbLine
 10
720.9105565705008
 20
214.9837561977013
 30
0.0
 11
730.9105565705008
 21
214.9837561977013
 31
0.0
  0
LINE
  5
38F
330
37
100
AcDbEntity
  8
Sichtbar (ISO)
100
AcDbLine
 10
730.9105565705009
 20
219.9837561976998
 30
0.0
 11
720.9105565705008
 21
219.9837561976998
 31
0.0
  0
LINE
  5
390
330
37
100
AcDbEntity
  8
Sichtbar (ISO)
100
AcDbLine
 10
900.9105565705008
 20
219.9837561977294
 30
0.0
 11
835.9105565705007
 21
219.9837561977294
 31
0.0
  0
LINE
  5
391
330
37
100
AcDbEntity
  8
Sichtbar (ISO)
100
AcDbLine
 10
835.9105565705007
 20
214.9837561977309
 30
0.0
 11
905.9105565705008
 21
214.9837561977309
 31
0.0
  0
LINE
  5
392
330
37
100
AcDbEntity
  8
Sichtbar (ISO)
100
AcDbLine
 10
905.9105565705008
 20
214.9837561977309
 30
0.0
 11
900.9105565705008
 21
219.9837561977294
 31
0.0
  0
LINE
  5
393
330
37
100
AcDbEntity
  8
Sichtbar (ISO)
100
AcDbLine
 10
835.9105565705007
 20
179.9837561977309
 30
0.0
 11
835.9105565705007
 21
214.9837561977309
 31
0.0
  0
LINE
  5
394
330
37
100
AcDbEntity
  8
Sichtbar (ISO)
100
AcDbLine
 10
830.9105565705008
 20
214.9837561977294
 30
0.0
 11
830.9105565705008
 21
179.9837561977294
 31
0.0
  0
LINE
  5
395
330
37
100
AcDbEntity
  8
Sichtbar (ISO)
100
AcDbLine
 10
730.9105565705008
 20
179.9837561977013
 30
0.0
 11
720.9105565705008
 21
179.9837561977013
 31
0.0
  0
LINE
  5
396
330
37
100
AcDbEntity
  8
Sichtbar (ISO)
100
AcDbLine
 10
720.9105565705008
 20
574.9837561977012
 30
0.0
 11
730.9105565705008
 21
574.9837561977012
 31
0.0
  0
LINE
  5
397
330
37
100
AcDbEntity
  8
Sichtbar (ISO)
100
AcDbLine
 10
905.9105565705008
 20
539.9837561977308
 30
0.0
 11
905.9105565705008
 21
574.9837561977308
 31
0.0
  0
LINE
  5
398
330
37
100
AcDbEntity
  8
Sichtbar (ISO)
100
AcDbLine
 10
905.9105565705008
 20
179.9837561977309
 30
0.0
 11
905.9105565705008
 21
214.9837561977309
 31
0.0
  0
LINE
  5
399
330
37
100
AcDbEntity
  8
Sichtbar (ISO)
100
AcDbLine
 10
730.9105565705008
 20
179.983756197716
 30
0.0
 11
830.9105565705008
 21
179.983756197716
 31
0.0
  0
LINE
  5
39A
330
37
100
AcDbEntity
  8
Sichtbar (ISO)
100
AcDbLine
 10
730.9105565705008
 20
574.9837561977159
 30
0.0
 11
830.9105565705008
 21
574.9837561977159
 31
0.0
  0
LINE
  5
39B
330
37
100
AcDbEntity
  8
Sichtbar (ISO)
100
AcDbLine
 10
730.9105565705008
 20
224.9837561977161
 30
0.0
 11
730.9105565705008
 21
529.9837561977159
 31
0.0
  0
LINE
  5
39C
330
37
100
AcDbEntity
  8
Sichtbar (ISO)
100
AcDbLine
 10
830.9105565705008
 20
539.9837561977159
 30
0.0
 11
830.9105565705008
 21
214.9837561977161
 31
0.0
  0
LINE
  5
39D
330
37
100
AcDbEntity
  8
Sichtbar (ISO)
100
AcDbLine
 10
730.9105565705008
 20
574.9837561977159
 30
0.0
 11
730.9105565705008
 21
529.9837561977159
 31
0.0
  0
LINE
  5
39E
330
37
100
AcDbEntity
  8
Sichtbar (ISO)
100
AcDbLine
 10
730.9105565705008
 20
224.983756197716
 30
0.0
 11
730.9105565705008
 21
179.983756197716
 31
0.0
  0
LINE
  5
39F
330
37
100
AcDbEntity
  8
Sichtbar (ISO)
100
AcDbLine
 10
1275.910556570501
 20
291.8214154924797
 30
0.0
 11
1275.910556570501
 21
295.9220166503912
 31
0.0
  0
LINE
  5
3A0
330
37
100
AcDbEntity
  8
Sichtbar (ISO)
100
AcDbLine
 10
1245.910556570501
 20
295.9220166503912
 30
0.0
 11
1245.910556570501
 21
291.8214154924797
 31
0.0
  0
LINE
  5
3A1
330
37
100
AcDbEntity
  8
Sichtbar (ISO)
100
AcDbLine
 10
1275.910556570501
 20
459.0454957449436
 30
0.0
 11
1275.910556570501
 21
463.1460969028534
 31
0.0
  0
LINE
  5
3A2
330
37
100
AcDbEntity
  8
Sichtbar (ISO)
100
AcDbLine
 10
1245.910556570501
 20
463.1460969028534
 30
0.0
 11
1245.910556570501
 21
459.0454957449434
 31
0.0
  0
LINE
  5
3A3
330
37
100
AcDbEntity
  8
Sichtbar (ISO)
100
AcDbLine
 10
1275.910556570501
 20
356.2705527620888
 30
0.0
 11
1275.910556570501
 21
295.9220166503912
 31
0.0
  0
LINE
  5
3A4
330
37
100
AcDbEntity
  8
Sichtbar (ISO)
100
AcDbLine
 10
1245.910556570501
 20
356.2705527620888
 30
0.0
 11
1245.910556570501
 21
295.9220166503912
 31
0.0
  0
LINE
  5
3A5
330
37
100
AcDbEntity
  8
Sichtbar (ISO)
100
AcDbLine
 10
1245.910556570501
 20
179.9837561976136
 30
0.0
 11
1245.910556570501
 21
291.8214154924797
 31
0.0
  0
LINE
  5
3A6
330
37
100
AcDbEntity
  8
Sichtbar (ISO)
100
AcDbLine
 10
1245.910556570501
 20
463.1460969028534
 30
0.0
 11
1245.910556570501
 21
574.9837561976136
 31
0.0
  0
LINE
  5
3A7
330
37
100
AcDbEntity
  8
Sichtbar (ISO)
100
AcDbLine
 10
1275.910556570501
 20
179.9837561976136
 30
0.0
 11
1275.910556570501
 21
291.8214154924797
 31
0.0
  0
LINE
  5
3A8
330
37
100
AcDbEntity
  8
Sichtbar (ISO)
100
AcDbLine
 10
1275.910556570501
 20
463.1460969028534
 30
0.0
 11
1275.910556570501
 21
574.9837561976136
 31
0.0
  0
LINE
  5
3A9
330
37
100
AcDbEntity
  8
Sichtbar (ISO)
100
AcDbLine
 10
1245.910556570501
 20
356.2705527620888
 30
0.0
 11
1245.910556570501
 21
398.6969596332816
 31
0.0
  0
LINE
  5
3AA
330
37
100
AcDbEntity
  8
Sichtbar (ISO)
100
AcDbLine
 10
1245.910556570501
 20
459.0454957449436
 30
0.0
 11
1245.910556570501
 21
398.6969596332816
 31
0.0
  0
LINE
  5
3AB
330
37
100
AcDbEntity
  8
Sichtbar (ISO)
100
AcDbLine
 10
1275.910556570501
 20
459.0454957449436
 30
0.0
 11
1275.910556570501
 21
398.6969596332816
 31
0.0
  0
LINE
  5
3AC
330
37
100
AcDbEntity
  8
Sichtbar (ISO)
100
AcDbLine
 10
1275.910556570501
 20
356.2705527620888
 30
0.0
 11
1275.910556570501
 21
398.6969596332816
 31
0.0
  0
LINE
  5
3AD
330
37
100
AcDbEntity
  8
Sichtbar (ISO)
100
AcDbLine
 10
1275.910556570501
 20
179.9837561976136
 30
0.0
 11
1245.910556570501
 21
179.9837561976136
 31
0.0
  0
LINE
  5
3AE
330
37
100
AcDbEntity
  8
Sichtbar (ISO)
100
AcDbLine
 10
1275.910556570501
 20
574.9837561976136
 30
0.0
 11
1245.910556570501
 21
574.9837561976136
 31
0.0
  0
LINE
  5
3AF
330
37
100
AcDbEntity
  8
Sichtbar (ISO)
100
AcDbLine
 10
1245.910556570501
 20
237.4837561976137
 30
0.0
 11
830.9105565705008
 21
237.4837561976137
 31
0.0
  0
LINE
  5
3B0
330
37
100
AcDbEntity
  8
Sichtbar (ISO)
100
AcDbLine
 10
1245.910556570501
 20
517.4837561976135
 30
0.0
 11
830.9105565705008
 21
517.4837561976135
 31
0.0
  0
LINE
  5
3B1
330
37
100
AcDbEntity
  8
Sichtbar (ISO)
100
AcDbLine
 10
830.9105565705008
 20
369.983756197716
 30
0.0
 11
1245.910556570501
 21
369.9837561976623
 31
0.0
  0
LINE
  5
3B2
330
37
100
AcDbEntity
  8
Sichtbar (ISO)
100
AcDbLine
 10
1245.910556570501
 20
384.9837561976623
 30
0.0
 11
830.9105565705008
 21
384.9837561977162
 31
0.0
  0
LINE
  5
3B3
330
37
100
AcDbEntity
  8
Sichtbar (ISO)
100
AcDbLine
 10
830.9105565705008
 20
369.983756197716
 30
0.0
 11
830.9105565705008
 21
384.9837561977162
 31
0.0
  0
LINE
  5
3B4
330
37
100
AcDbEntity
  8
Sichtbar (ISO)
100
AcDbLine
 10
1755.910556517137
 20
292.3686336543507
 30
0.0
 11
1755.910556521345
 21
299.0803232871781
 31
0.0
  0
LINE
  5
3B5
330
37
100
AcDbEntity
  8
Sichtbar (ISO)
100
AcDbLine
 10
1725.910556521345
 20
299.0803233059867
 30
0.0
 11
1725.910556517138
 21
292.3686336731593
 31
0.0
  0
LINE
  5
3B6
330
37
100
AcDbEntity
  8
Sichtbar (ISO)
100
AcDbLine
 10
1725.910556626264
 20
466.427595842213
 30
0.0
 11
1725.910556622121
 21
459.8187876487446
 31
0.0
  0
LINE
  5
3B7
330
37
100
AcDbEntity
  8
Sichtbar (ISO)
100
AcDbLine
 10
1755.910556622121
 20
459.8187876299359
 30
0.0
 11
1755.910556626264
 21
466.4275958234044
 31
0.0
  0
LINE
  5
3B8
330
37
100
AcDbEntity
  8
Sichtbar (ISO)
100
AcDbLine
 10
1755.910556521345
 20
299.0803232871781
 30
0.0
 11
1755.910556558835
 21
358.8764048714078
 31
0.0
  0
LINE
  5
3B9
330
37
100
AcDbEntity
  8
Sichtbar (ISO)
100
AcDbLine
 10
1725.910556521345
 20
299.0803233059868
 30
0.0
 11
1725.910556558835
 21
358.8764048902165
 31
0.0
  0
LINE
  5
3BA
330
37
100
AcDbEntity
  8
Sichtbar (ISO)
100
AcDbLine
 10
1725.910556585432
 20
401.3003383074503
 30
0.0
 11
1725.910556622121
 21
459.8187876487446
 31
0.0
  0
LINE
  5
3BB
330
37
100
AcDbEntity
  8
Sichtbar (ISO)
100
AcDbLine
 10
1755.910556585433
 20
401.3003382886418
 30
0.0
 11
1755.910556622121
 21
459.8187876299359
 31
0.0
  0
LINE
  5
3BC
330
37
100
AcDbEntity
  8
Sichtbar (ISO)
100
AcDbLine
 10
1755.910556585433
 20
401.3003382886418
 30
0.0
 11
1755.910556558834
 21
358.8764048714078
 31
0.0
  0
LINE
  5
3BD
330
37
100
AcDbEntity
  8
Sichtbar (ISO)
100
AcDbLine
 10
1725.910556585432
 20
401.3003383074503
 30
0.0
 11
1725.910556558835
 21
358.8764048902165
 31
0.0
  0
LINE
  5
3BE
330
37
100
AcDbEntity
  8
Sichtbar (ISO)
100
AcDbLine
 10
1755.910556694324
 20
574.9837566036242
 30
0.0
 11
1755.910556626264
 21
466.4275958234043
 31
0.0
  0
LINE
  5
3BF
330
37
100
AcDbEntity
  8
Sichtbar (ISO)
100
AcDbLine
 10
1755.910556517137
 20
292.3686336543507
 30
0.0
 11
1755.910556446677
 21
179.9837566036233
 31
0.0
  0
LINE
  5
3C0
330
37
100
AcDbEntity
  8
Sichtbar (ISO)
100
AcDbLine
 10
1725.910556446677
 20
179.9837566224319
 30
0.0
 11
1725.910556517137
 21
292.3686336731592
 31
0.0
  0
LINE
  5
3C1
330
37
100
AcDbEntity
  8
Sichtbar (ISO)
100
AcDbLine
 10
1725.910556626264
 20
466.427595842213
 30
0.0
 11
1725.910556694324
 21
574.9837566224329
 31
0.0
  0
LINE
  5
3C2
330
37
100
AcDbEntity
  8
Sichtbar (ISO)
100
AcDbLine
 10
1725.910556694324
 20
574.9837566224329
 30
0.0
 11
1755.910556694324
 21
574.9837566036242
 31
0.0
  0
LINE
  5
3C3
330
37
100
AcDbEntity
  8
Sichtbar (ISO)
100
AcDbLine
 10
1725.910556446677
 20
179.9837566224319
 30
0.0
 11
1755.910556446677
 21
179.9837566036233
 31
0.0
  0
LINE
  5
3C4
330
37
100
AcDbEntity
  8
Sichtbar (ISO)
100
AcDbLine
 10
1780.910556667677
 20
532.4837566043503
 30
0.0
 11
1780.910556664543
 21
527.4837566054945
 31
0.0
  0
LINE
  5
3C5
330
37
100
AcDbEntity
  8
Sichtbar (ISO)
100
AcDbLine
 10
1780.910556664543
 20
527.4837566054945
 30
0.0
 11
1911.777922608006
 21
527.4837565493827
 31
0.0
  0
LINE
  5
3C6
330
37
100
AcDbEntity
  8
Sichtbar (ISO)
100
AcDbLine
 10
1911.777922608006
 20
527.4837565493827
 30
0.0
 11
1917.551425303037
 21
532.4837565457632
 31
0.0
  0
LINE
  5
3C7
330
37
100
AcDbEntity
  8
Sichtbar (ISO)
100
AcDbLine
 10
1917.551425303037
 20
532.4837565457632
 30
0.0
 11
1780.910556667677
 21
532.4837566043503
 31
0.0
  0
LINE
  5
3C8
330
37
100
AcDbEntity
  8
Sichtbar (ISO)
100
AcDbLine
 10
2111.777922611141
 20
532.483756423992
 30
0.0
 11
1917.551425303037
 21
532.4837565457632
 31
0.0
  0
LINE
  5
3C9
330
37
100
AcDbEntity
  8
Sichtbar (ISO)
100
AcDbLine
 10
2277.224703352334
 20
532.4837563042026
 30
0.0
 11
2111.777922611141
 21
532.483756423992
 31
0.0
  0
LINE
  5
3CA
330
37
100
AcDbEntity
  8
Sichtbar (ISO)
100
AcDbLine
 10
1780.910556667677
 20
532.4837565993922
 30
0.0
 11
1755.910556667678
 21
532.4837566150661
 31
0.0
  0
LINE
  5
3CB
330
37
100
AcDbEntity
  8
Sichtbar (ISO)
100
AcDbLine
 10
1911.777922598602
 20
512.4837565493827
 30
0.0
 11
1911.777922608006
 21
527.4837565493827
 31
0.0
  0
LINE
  5
3CC
330
37
100
AcDbEntity
  8
Sichtbar (ISO)
100
AcDbLine
 10
2111.777922598602
 20
512.4837564239918
 30
0.0
 11
1911.777922598602
 21
512.4837565493827
 31
0.0
  0
LINE
  5
3CD
330
37
100
AcDbEntity
  8
Sichtbar (ISO)
100
AcDbLine
 10
2111.777922598602
 20
512.4837564239918
 30
0.0
 11
2111.777922611141
 21
532.483756423992
 31
0.0
  0
LINE
  5
3CE
330
37
100
AcDbEntity
  8
Sichtbar (ISO)
100
AcDbLine
 10
2277.224703339795
 20
512.4837563042026
 30
0.0
 11
2277.224703352334
 21
532.4837563042026
 31
0.0
  0
LINE
  5
3CF
330
37
100
AcDbEntity
  8
Sichtbar (ISO)
100
AcDbLine
 10
2277.224703339795
 20
512.4837563042026
 30
0.0
 11
2111.777922598602
 21
512.4837564239918
 31
0.0
  0
LINE
  5
3D0
330
37
100
AcDbEntity
  8
Sichtbar (ISO)
100
AcDbLine
 10
1780.910556655139
 20
512.4837566054946
 30
0.0
 11
1780.910556664543
 21
527.4837566054945
 31
0.0
  0
LINE
  5
3D1
330
37
100
AcDbEntity
  8
Sichtbar (ISO)
100
AcDbLine
 10
1911.777922598602
 20
512.4837565493827
 30
0.0
 11
1780.910556655139
 21
512.4837566054946
 31
0.0
  0
LINE
  5
3D2
330
37
100
AcDbEntity
  8
Sichtbar (ISO)
100
AcDbLine
 10
1780.910556655139
 20
512.4837565993922
 30
0.0
 11
1755.910556655139
 21
512.4837566150659
 31
0.0
  0
LINE
  5
3D3
330
37
100
AcDbEntity
  8
Sichtbar (ISO)
100
AcDbLine
 10
1780.910556476457
 20
227.4837566054947
 30
0.0
 11
1780.910556473322
 21
222.4837566043504
 31
0.0
  0
LINE
  5
3D4
330
37
100
AcDbEntity
  8
Sichtbar (ISO)
100
AcDbLine
 10
1780.910556473322
 20
222.4837566043504
 30
0.0
 11
1917.551425108682
 21
222.4837565457633
 31
0.0
  0
LINE
  5
3D5
330
37
100
AcDbEntity
  8
Sichtbar (ISO)
100
AcDbLine
 10
1917.551425108682
 20
222.4837565457633
 30
0.0
 11
1911.77792241992
 21
227.483756549383
 31
0.0
  0
LINE
  5
3D6
330
37
100
AcDbEntity
  8
Sichtbar (ISO)
100
AcDbLine
 10
1911.77792241992
 20
227.483756549383
 30
0.0
 11
1780.910556476457
 21
227.4837566054947
 31
0.0
  0
LINE
  5
3D7
330
37
100
AcDbEntity
  8
Sichtbar (ISO)
100
AcDbLine
 10
1911.77792241992
 20
227.483756549383
 30
0.0
 11
1911.777922429325
 21
242.4837565493831
 31
0.0
  0
LINE
  5
3D8
330
37
100
AcDbEntity
  8
Sichtbar (ISO)
100
AcDbLine
 10
1911.777922429325
 20
242.4837565493831
 30
0.0
 11
1780.910556485861
 21
242.4837566054947
 31
0.0
  0
LINE
  5
3D9
330
37
100
AcDbEntity
  8
Sichtbar (ISO)
100
AcDbLine
 10
1780.910556476457
 20
227.4837566054947
 30
0.0
 11
1780.910556485861
 21
242.4837566054947
 31
0.0
  0
LINE
  5
3DA
330
37
100
AcDbEntity
  8
Sichtbar (ISO)
100
AcDbLine
 10
2111.777922416786
 20
222.4837564239921
 30
0.0
 11
1917.551425108682
 21
222.4837565457633
 31
0.0
  0
LINE
  5
3DB
330
37
100
AcDbEntity
  8
Sichtbar (ISO)
100
AcDbLine
 10
2111.777922416786
 20
222.4837564239921
 30
0.0
 11
2111.777922429325
 21
242.4837564239921
 31
0.0
  0
LINE
  5
3DC
330
37
100
AcDbEntity
  8
Sichtbar (ISO)
100
AcDbLine
 10
2111.777922429325
 20
242.4837564239922
 30
0.0
 11
1911.777922429325
 21
242.4837565493831
 31
0.0
  0
LINE
  5
3DD
330
37
100
AcDbEntity
  8
Sichtbar (ISO)
100
AcDbLine
 10
2277.22470315798
 20
222.4837563042029
 30
0.0
 11
2277.224703170519
 21
242.4837563042029
 31
0.0
  0
LINE
  5
3DE
330
37
100
AcDbEntity
  8
Sichtbar (ISO)
100
AcDbLine
 10
2277.224703170519
 20
242.4837563042029
 30
0.0
 11
2111.777922429325
 21
242.4837564239922
 31
0.0
  0
LINE
  5
3DF
330
37
100
AcDbEntity
  8
Sichtbar (ISO)
100
AcDbLine
 10
2277.22470315798
 20
222.4837563042029
 30
0.0
 11
2111.777922416786
 21
222.4837564239921
 31
0.0
  0
LINE
  5
3E0
330
37
100
AcDbEntity
  8
Sichtbar (ISO)
100
AcDbLine
 10
1780.910556485861
 20
242.4837565993924
 30
0.0
 11
1755.910556485861
 21
242.4837566150662
 31
0.0
  0
LINE
  5
3E1
330
37
100
AcDbEntity
  8
Sichtbar (ISO)
100
AcDbLine
 10
1780.910556473322
 20
222.4837565993923
 30
0.0
 11
1755.910556473322
 21
222.4837566150662
 31
0.0
  0
ELLIPSE
  5
3E2
330
37
100
AcDbEntity
  8
Sichtbar (ISO)
100
AcDbEllipse
 10
1838.797964212372
 20
377.4837565882041
 30
0.0
 11
0.0000000008901146
 21
-465.6249999999999
 31
0.0
210
0.0
220
0.0
230
0.9999999999999998
 40
0.9838468197313559
 41
1.276639615378899
 42
1.86495303693251
  0
ELLIPSE
  5
3E3
330
37
100
AcDbEntity
  8
Sichtbar (ISO)
100
AcDbEllipse
 10
2257.547766860531
 20
377.4837563169489
 30
0.0
 11
0.0000000000038136
 21
-10.5
 31
0.0
210
0.0
220
0.0
230
1.0
 40
0.9838468197313561
 41
3.141592653589861
 42
6.283185307179653
  0
LINE
  5
3E4
330
37
100
AcDbEntity
  8
Sichtbar (ISO)
100
AcDbLine
 10
2148.873479212676
 20
512.4837563838561
 30
0.0
 11
2148.873479043399
 21
242.4837563838563
 31
0.0
  0
LINE
  5
3E5
330
37
100
AcDbEntity
  8
Sichtbar (ISO)
100
AcDbLine
 10
2154.243850873377
 20
512.4837563838665
 30
0.0
 11
2154.2438507041
 21
242.4837563838665
 31
0.0
  0
ELLIPSE
  5
3E6
330
37
100
AcDbEntity
  8
Sichtbar (ISO)
100
AcDbEllipse
 10
2315.698264520225
 20
377.4837562714777
 30
0.0
 11
299.559447272442
 21
-0.0000001904304504
 31
0.0
210
0.0
220
0.0
230
1.0
 40
0.5841912234563638
 41
5.165782916889209
 42
7.400587697442533
  0
LINE
  5
3E7
330
37
100
AcDbEntity
  8
Sichtbar (ISO)
100
AcDbLine
 10
2015.80874485265
 20
222.4837564609703
 30
0.0
 11
2015.808744840112
 21
202.4837564609703
 31
0.0
  0
LINE
  5
3E8
330
37
100
AcDbEntity
  8
Sichtbar (ISO)
100
AcDbLine
 10
2015.808744840112
 20
202.4837564609703
 30
0.0
 11
2016.570935444481
 21
202.4837564616333
 31
0.0
  0
LINE
  5
3E9
330
37
100
AcDbEntity
  8
Sichtbar (ISO)
100
AcDbLine
 10
2016.570935444481
 20
202.4837564616333
 30
0.0
 11
2052.96846153186
 21
202.4837564384954
 31
0.0
  0
LINE
  5
3EA
330
37
100
AcDbEntity
  8
Sichtbar (ISO)
100
AcDbLine
 10
2015.808745047007
 20
532.4837564609703
 30
0.0
 11
2015.808745059546
 21
552.4837564609703
 31
0.0
  0
LINE
  5
3EB
330
37
100
AcDbEntity
  8
Sichtbar (ISO)
100
AcDbLine
 10
2016.570935663915
 20
552.4837564616333
 30
0.0
 11
2015.808745059546
 21
552.4837564609703
 31
0.0
  0
LINE
  5
3EC
330
37
100
AcDbEntity
  8
Sichtbar (ISO)
100
AcDbLine
 10
2052.968461751294
 20
552.4837564384954
 30
0.0
 11
2016.570935663915
 21
552.4837564616333
 31
0.0
  0
LINE
  5
3ED
330
37
100
AcDbEntity
  8
Sichtbar (ISO)
100
AcDbLine
 10
1966.716380648157
 20
252.483756493326
 30
0.0
 11
2016.570935475828
 21
252.4837564616334
 31
0.0
  0
LINE
  5
3EE
330
37
100
AcDbEntity
  8
Sichtbar (ISO)
100
AcDbLine
 10
1965.191999439419
 20
252.4837564919999
 30
0.0
 11
1966.716380648157
 21
252.483756493326
 31
0.0
  0
LINE
  5
3EF
330
37
100
AcDbEntity
  8
Sichtbar (ISO)
100
AcDbLine
 10
2016.570935475828
 20
252.4837564616334
 30
0.0
 11
2016.570935469559
 21
242.4837564836255
 31
0.0
  0
LINE
  5
3F0
330
37
100
AcDbEntity
  8
Sichtbar (ISO)
100
AcDbLine
 10
2016.57093545702
 20
222.4837564836255
 30
0.0
 11
2016.57093544448
 21
202.4837564616333
 31
0.0
  0
LINE
  5
3F1
330
37
100
AcDbEntity
  8
Sichtbar (ISO)
100
AcDbLine
 10
2015.046554260821
 20
242.4837564845753
 30
0.0
 11
2015.04655426709
 21
252.4837564603073
 31
0.0
  0
LINE
  5
3F2
330
37
100
AcDbEntity
  8
Sichtbar (ISO)
100
AcDbLine
 10
2016.570935663915
 20
552.4837564616333
 30
0.0
 11
2016.570935651376
 21
532.4837564836251
 31
0.0
  0
LINE
  5
3F3
330
37
100
AcDbEntity
  8
Sichtbar (ISO)
100
AcDbLine
 10
2016.570935638837
 20
512.4837564836251
 30
0.0
 11
2016.570935632567
 21
502.4837564616333
 31
0.0
  0
LINE
  5
3F4
330
37
100
AcDbEntity
  8
Sichtbar (ISO)
100
AcDbLine
 10
2015.046554423829
 20
502.4837564603073
 30
0.0
 11
2015.046554430099
 21
512.483756484575
 31
0.0
  0
LINE
  5
3F5
330
37
100
AcDbEntity
  8
Sichtbar (ISO)
100
AcDbLine
 10
2016.570935632567
 20
502.4837564616333
 30
0.0
 11
1966.716380804895
 21
502.4837564933259
 31
0.0
  0
LINE
  5
3F6
330
37
100
AcDbEntity
  8
Sichtbar (ISO)
100
AcDbLine
 10
1966.716380804895
 20
502.4837564933259
 30
0.0
 11
1965.191999596157
 21
502.4837564919998
 31
0.0
  0
LINE
  5
3F7
330
37
100
AcDbEntity
  8
Sichtbar (ISO)
100
AcDbLine
 10
1966.716380648157
 20
252.483756493326
 30
0.0
 11
1966.716380804896
 21
502.4837564933259
 31
0.0
  0
LINE
  5
3F8
330
37
100
AcDbEntity
  8
Sichtbar (ISO)
100
AcDbLine
 10
1965.191999596157
 20
502.4837564919998
 30
0.0
 11
1965.191999439419
 21
252.4837564919999
 31
0.0
  0
ELLIPSE
  5
3F9
330
37
100
AcDbEntity
  8
Sichtbar (ISO)
100
AcDbEllipse
 10
2434.411019158388
 20
564.9837561974383
 30
0.0
 11
-12.44941898192358
 21
-12.44941896605394
 31
0.0
210
0.0
220
0.0
230
0.9999999999999998
 40
0.0902349852805995
 41
1.660787593398439
 42
3.231583920077373
  0
ELLIPSE
  5
3FA
330
37
100
AcDbEntity
  8
Sichtbar (ISO)
100
AcDbEllipse
 10
2065.468461759131
 20
564.9837564364294
 30
0.0
 11
12.44941896618249
 21
-12.4494189820521
 31
0.0
210
0.0
220
0.0
230
1.0
 40
0.0902349853940932
 41
1.480805060307735
 42
3.23158392019341
  0
ELLIPSE
  5
3FB
330
37
100
AcDbEntity
  8
Sichtbar (ISO)
100
AcDbEllipse
 10
2434.41101892328
 20
189.9837561974391
 30
0.0
 11
-12.44941896618249
 21
12.449418982052
 31
0.0
210
0.0
220
0.0
230
1.0
 40
0.0902349853940934
 41
3.051601386986653
 42
4.622397713897516
  0
ELLIPSE
  5
3FC
330
37
100
AcDbEntity
  8
Sichtbar (ISO)
100
AcDbEllipse
 10
2065.468461524023
 20
189.9837564364302
 30
0.0
 11
12.44941898192356
 21
12.44941896605395
 31
0.0
210
0.0
220
0.0
230
1.0
 40
0.0902349852806011
 41
3.051601387102616
 42
4.802380246988226
  0
LINE
  5
3FD
330
37
100
AcDbEntity
  8
Sichtbar (ISO)
100
AcDbLine
 10
2053.170376520585
 20
577.4837564443958
 30
0.0
 11
2446.709104413126
 21
577.4837561894719
 31
0.0
  0
LINE
  5
3FE
330
37
100
AcDbEntity
  8
Sichtbar (ISO)
100
AcDbLine
 10
2446.911019166098
 20
577.2818414362433
 30
0.0
 11
2446.91101891557
 21
177.6856709429605
 31
0.0
  0
LINE
  5
3FF
330
37
100
AcDbEntity
  8
Sichtbar (ISO)
100
AcDbLine
 10
2446.709104161826
 20
177.483756189473
 30
0.0
 11
2053.170376269285
 21
177.4837564443967
 31
0.0
  0
LINE
  5
400
330
37
100
AcDbEntity
  8
Sichtbar (ISO)
100
AcDbLine
 10
2052.968461516313
 20
177.6856711976253
 30
0.0
 11
2052.968461544399
 21
222.4837564608208
 31
0.0
  0
LINE
  5
401
330
37
100
AcDbEntity
  8
Sichtbar (ISO)
100
AcDbLine
 10
2052.968461556938
 20
242.4837564608207
 30
0.0
 11
2052.968461726216
 21
512.4837564608196
 31
0.0
  0
LINE
  5
402
330
37
100
AcDbEntity
  8
Sichtbar (ISO)
100
AcDbLine
 10
2052.968461738755
 20
532.4837564608198
 30
0.0
 11
2052.968461766841
 21
577.2818416909083
 31
0.0
  0
ELLIPSE
  5
403
330
37
100
AcDbEntity
  8
Sichtbar (ISO)
100
AcDbEllipse
 10
2252.17739519983
 20
377.4837563169386
 30
0.0
 11
-0.0000000000150746
 21
7.499999999999981
 31
0.0
210
0.0
220
0.0
230
0.9999999999999998
 40
0.9838468197313547
 41
3.793249981674573
 42
5.631527979091314
  0
ELLIPSE
  5
404
330
37
100
AcDbEntity
  8
Sichtbar (ISO)
100
AcDbEllipse
 10
2261.128014634331
 20
377.4837563169558
 30
0.0
 11
0.0000000047021537
 21
7.499999999999981
 31
0.0
210
0.0
220
0.0
230
0.9999999999999998
 40
0.9838468197313547
 41
0.0000000000211701
 42
6.283185307179585
  0
ELLIPSE
  5
405
330
37
100
AcDbEntity
  8
Sichtbar (ISO)
100
AcDbEllipse
 10
2261.128014634331
 20
377.4837563169558
 30
0.0
 11
0.0000000065830151
 21
10.49999999999997
 31
0.0
210
0.0
220
0.0
230
1.0
 40
0.9838468197313549
 41
0.0000000000211591
 42
6.283185307179585
  0
LINE
  5
406
330
37
100
AcDbEntity
  8
Sichtbar (ISO)
100
AcDbLine
 10
2257.547766860527
 20
387.983756316949
 30
0.0
 11
2261.128014634328
 21
387.9837563169558
 31
0.0
  0
LINE
  5
407
330
37
100
AcDbEntity
  8
Sichtbar (ISO)
100
AcDbLine
 10
2257.547766860534
 20
366.9837563169489
 30
0.0
 11
2261.128014634333
 21
366.9837563169558
 31
0.0
  0
MTEXT
  5
409
330
37
100
AcDbEntity
  8
Symbol (ISO)
100
AcDbMText
 10
2191.413590724723
 20
736.8188332786273
 30
0.0
 40
5.24999976158142
 41
0.0
 71
     7
 72
     1
  1
 
  7
Textstil13
 73
     1
 44
1.0
1001
ACAD
1000
MTEXTBEGIN
1070
    73
1070
     1
1070
    44
1040
1.0
1070
    74
1070
     0
1000
MTEXTEND
  0
ENDSEC
  0
SECTION
  2
OBJECTS
  0
DICTIONARY
  5
C
330
0
100
AcDbDictionary
281
     1
  3
ACAD_COLOR
350
30
  3
ACAD_GROUP
350
D
  3
ACAD_LAYOUT
350
2F
  3
ACAD_MATERIAL
350
10
  3
ACAD_MLINESTYLE
350
2C
  3
ACAD_PLOTSETTINGS
350
2E
  3
ACAD_PLOTSTYLENAME
350
E
  3
ACAD_TABLESTYLE
350
31
  3
ACAD_VISUALSTYLE
350
14
  3
AcDbVariableDictionary
350
40A
  3
DWGPROPS
350
424
  0
DICTIONARY
  5
42E
330
21C
100
AcDbDictionary
280
     1
281
     1
  3
ACAD_MTEXT_RT
360
42F
  0
DICTIONARY
  5
30
102
{ACAD_REACTORS
330
C
102
}
330
C
100
AcDbDictionary
281
     1
  0
DICTIONARY
  5
D
102
{ACAD_REACTORS
330
C
102
}
330
C
100
AcDbDictionary
281
     1
  0
DICTIONARY
  5
2F
102
{ACAD_REACTORS
330
C
102
}
330
C
100
AcDbDictionary
281
     1
  3
Layout1
350
36
  3
Layout2
350
3E
  3
Model
350
3A
  0
DICTIONARY
  5
10
102
{ACAD_REACTORS
330
C
102
}
330
C
100
AcDbDictionary
281
     1
  3
ByBlock
350
12
  3
ByLayer
350
11
  3
Global
350
13
  0
DICTIONARY
  5
2C
102
{ACAD_REACTORS
330
C
102
}
330
C
100
AcDbDictionary
281
     1
  3
Standard
350
2D
  0
DICTIONARY
  5
2E
102
{ACAD_REACTORS
330
C
102
}
330
C
100
AcDbDictionary
281
     1
  0
ACDBDICTIONARYWDFLT
  5
E
102
{ACAD_REACTORS
330
C
102
}
330
C
100
AcDbDictionary
281
     1
  3
Normal
350
F
100
AcDbDictionaryWithDefault
340
F
  0
DICTIONARY
  5
31
102
{ACAD_REACTORS
330
C
102
}
330
C
100
AcDbDictionary
281
     1
  3
Standard
350
32
  0
DICTIONARY
  5
14
102
{ACAD_REACTORS
330
C
102
}
330
C
100
AcDbDictionary
281
     1
  3
2dWireframe
350
1A
  3
3D Hidden
350
1C
  3
3dWireframe
350
1B
  3
Basic
350
19
  3
Brighten
350
20
  3
ColorChange
350
24
  3
Conceptual
350
1D
  3
Dim
350
1F
  3
Facepattern
350
23
  3
Flat
350
15
  3
FlatWithEdges
350
16
  3
Gouraud
350
17
  3
GouraudWithEdges
350
18
  3
Linepattern
350
22
  3
Realistic
350
1E
  3
Thicken
350
21
  0
DICTIONARY
  5
40A
102
{ACAD_REACTORS
330
C
102
}
330
C
100
AcDbDictionary
281
     1
  3
CTABLESTYLE
350
40B
  3
DIMASSOC
350
40F
  3
HIDETEXT
350
40E
  3
INDEXCTL
350
40D
  3
SORTENTS
350
40C
  0
XRECORD
  5
424
102
{ACAD_REACTORS
330
C
102
}
330
C
100
AcDbXrecord
280
     1
  1
DWGPROPS COOKIE
  2
Optimale-Länge
  3

  4
Reinhardt
  6

  7

  8

  9
1:1
300
Manager=
301
Firma=
302
Kategorie=
303
Bauteilnummer=Alligator250 KL-Flansch 
304
Bezeichnung=
305
Projekt=CAD extern
306
Konstrukteur=Reinhardt
307
Ingenieur=
308
Bevollmächtigter=250
309
Kostenstelle=
 40
0.000037974537037
 41
2454089.536219329
 42
2454089.536219329
  1

 90
       16
300
Zulieferer=Zangenberg
300
Benutzerstatus=
300
Konstruktionsstatus=InBearbeitung
300
Kontrolliert von=
300
Konstruktion genehmigt von=
300
Fertigung genehmigt von=
  0
XRECORD
  5
42F
102
{ACAD_REACTORS
330
42E
102
}
330
42E
100
AcDbXrecord
280
     1
 40
11072.0
  1
Maßstab:1:1
  0
LAYOUT
  5
36
102
{ACAD_XDICTIONARY
360
427
102
}
102
{ACAD_REACTORS
330
2F
102
}
330
2F
100
AcDbPlotSettings
  1

  2

  4

  6

 40
0.0
 41
0.0
 42
0.0
 43
0.0
 44
0.0
 45
0.0
 46
0.0
 47
0.0
 48
0.0
 49
0.0
140
0.0
141
0.0
142
1.0
143
1.0
 70
   688
 72
     0
 73
     0
 74
     5
  7

 75
    16
147
1.0
148
0.0
149
0.0
100
AcDbLayout
  1
Layout1
 70
     1
 71
     1
 10
0.0
 20
0.0
 11
12.0
 21
9.0
 12
0.0
 22
0.0
 32
0.0
 14
0.0
 24
0.0
 34
0.0
 15
0.0
 25
0.0
 35
0.0
146
0.0
 13
0.0
 23
0.0
 33
0.0
 16
1.0
 26
0.0
 36
0.0
 17
0.0
 27
1.0
 37
0.0
 76
     0
330
33
  0
LAYOUT
  5
3E
102
{ACAD_XDICTIONARY
360
42B
102
}
102
{ACAD_REACTORS
330
2F
102
}
330
2F
100
AcDbPlotSettings
  1

  2

  4

  6

 40
0.0
 41
0.0
 42
0.0
 43
0.0
 44
0.0
 45
0.0
 46
0.0
 47
0.0
 48
0.0
 49
0.0
140
0.0
141
0.0
142
1.0
143
1.0
 70
   688
 72
     0
 73
     0
 74
     5
  7

 75
    16
147
1.0
148
0.0
149
0.0
100
AcDbLayout
  1
Layout2
 70
     1
 71
     2
 10
0.0
 20
0.0
 11
12.0
 21
9.0
 12
0.0
 22
0.0
 32
0.0
 14
0.0
 24
0.0
 34
0.0
 15
0.0
 25
0.0
 35
0.0
146
0.0
 13
0.0
 23
0.0
 33
0.0
 16
1.0
 26
0.0
 36
0.0
 17
0.0
 27
1.0
 37
0.0
 76
     0
330
3B
  0
LAYOUT
  5
3A
102
{ACAD_XDICTIONARY
360
429
102
}
102
{ACAD_REACTORS
330
2F
102
}
330
2F
100
AcDbPlotSettings
  1

  2

  4

  6

 40
0.0
 41
0.0
 42
0.0
 43
0.0
 44
0.0
 45
0.0
 46
0.0
 47
0.0
 48
0.0
 49
0.0
140
0.0
141
0.0
142
1.0
143
1.0
 70
  1712
 72
     0
 73
     0
 74
     0
  7

 75
     0
147
1.0
148
0.0
149
0.0
100
AcDbLayout
  1
Model
 70
     1
 71
     0
 10
0.0
 20
0.0
 11
12.0
 21
9.0
 12
0.0
 22
0.0
 32
0.0
 14
0.0
 24
0.0
 34
0.0
 15
0.0
 25
0.0
 35
0.0
146
0.0
 13
0.0
 23
0.0
 33
0.0
 16
1.0
 26
0.0
 36
0.0
 17
0.0
 27
1.0
 37
0.0
 76
     0
330
37
  0
MATERIAL
  5
12
102
{ACAD_XDICTIONARY
360
413
102
}
102
{ACAD_REACTORS
330
10
102
}
330
10
100
AcDbMaterial
  1
ByBlock
  0
MATERIAL
  5
11
102
{ACAD_XDICTIONARY
360
411
102
}
102
{ACAD_REACTORS
330
10
102
}
330
10
100
AcDbMaterial
  1
ByLayer
  0
MATERIAL
  5
13
102
{ACAD_XDICTIONARY
360
415
102
}
102
{ACAD_REACTORS
330
10
102
}
330
10
100
AcDbMaterial
  1
Global
  0
MLINESTYLE
  5
2D
102
{ACAD_REACTORS
330
2C
102
}
330
2C
100
AcDbMlineStyle
  2
STANDARD
 70
     0
  3

 62
   256
 51
90.0
 52
90.0
 71
     2
 49
0.5
 62
   256
  6
BYLAYER
 49
-0.5
 62
   256
  6
BYLAYER
  0
ACDBPLACEHOLDER
  5
F
102
{ACAD_REACTORS
330
E
102
}
330
E
  0
TABLESTYLE
  5
32
102
{ACAD_XDICTIONARY
360
425
102
}
102
{ACAD_REACTORS
330
31
102
}
330
31
100
AcDbTableStyle
  3
Standard
 70
     0
 71
     0
 40
0.06
 41
0.06
280
     0
281
     0
  7
Standard
140
0.18
170
     2
 62
     0
 63
     7
283
     0
274
    -2
284
     1
 64
     0
275
    -2
285
     1
 65
     0
276
    -2
286
     1
 66
     0
277
    -2
287
     1
 67
     0
278
    -2
288
     1
 68
     0
279
    -2
289
     1
 69
     0
  7
Standard
140
0.25
170
     5
 62
     0
 63
     7
283
     0
274
    -2
284
     1
 64
     0
275
    -2
285
     1
 65
     0
276
    -2
286
     1
 66
     0
277
    -2
287
     1
 67
     0
278
    -2
288
     1
 68
     0
279
    -2
289
     1
 69
     0
  7
Standard
140
0.18
170
     5
 62
     0
 63
     7
283
     0
274
    -2
284
     1
 64
     0
275
    -2
285
     1
 65
     0
276
    -2
286
     1
 66
     0
277
    -2
287
     1
 67
     0
278
    -2
288
     1
 68
     0
279
    -2
289
     1
 69
     0
  0
VISUALSTYLE
  5
1A
102
{ACAD_REACTORS
330
14
102
}
330
14
100
AcDbVisualStyle
  2
2dWireframe
 70
     4
 71
     0
 72
     2
 73
     0
 90
        0
 40
-0.6
 41
-30.0
 62
     5
 63
     7
 74
     1
 91
        4
 64
     7
 65
   257
 75
     1
175
     1
 42
1.0
 92
        0
 66
   257
 43
1.0
 76
     1
 77
     6
 78
     2
 67
     7
 79
     5
170
     0
171
     0
290
     0
174
     0
 93
        1
 44
0.0
173
     0
291
     0
 45
0.0
1001
ACAD
1000
AcDbSavedByObjectVersion
1070
     0
1000
AcDbSavedByObjectVersion
1070
     0
  0
VISUALSTYLE
  5
1C
102
{ACAD_REACTORS
330
14
102
}
330
14
100
AcDbVisualStyle
  2
3D Hidden
 70
     6
 71
     1
 72
     2
 73
     2
 90
        0
 40
-0.6
 41
-30.0
 62
     5
 63
     7
 74
     2
 91
        2
 64
     7
 65
   257
 75
     2
175
     1
 42
40.0
 92
        0
 66
   257
 43
1.0
 76
     1
 77
     6
 78
     2
 67
     7
 79
     3
170
     0
171
     0
290
     0
174
     0
 93
        1
 44
0.0
173
     0
291
     0
 45
0.0
1001
ACAD
1000
AcDbSavedByObjectVersion
1070
     0
1000
AcDbSavedByObjectVersion
1070
     0
  0
VISUALSTYLE
  5
1B
102
{ACAD_REACTORS
330
14
102
}
330
14
100
AcDbVisualStyle
  2
3dWireframe
 70
     5
 71
     0
 72
     2
 73
     0
 90
        0
 40
-0.6
 41
-30.0
 62
     5
 63
     7
 74
     1
 91
        4
 64
     7
 65
   257
 75
     1
175
     1
 42
1.0
 92
        0
 66
   257
 43
1.0
 76
     1
 77
     6
 78
     2
 67
     7
 79
     5
170
     0
171
     0
290
     0
174
     0
 93
        1
 44
0.0
173
     0
291
     0
 45
0.0
1001
ACAD
1000
AcDbSavedByObjectVersion
1070
     0
1000
AcDbSavedByObjectVersion
1070
     0
  0
VISUALSTYLE
  5
19
102
{ACAD_REACTORS
330
14
102
}
330
14
100
AcDbVisualStyle
  2
Basic
 70
     7
 71
     1
 72
     0
 73
     1
 90
        0
 40
-0.6
 41
-30.0
 62
     5
 63
     7
 74
     0
 91
        4
 64
     7
 65
   257
 75
     1
175
     1
 42
1.0
 92
        8
 66
     7
 43
1.0
 76
     1
 77
     6
 78
     2
 67
     7
 79
     5
170
     0
171
     0
290
     0
174
     0
 93
        1
 44
0.0
173
     0
291
     1
 45
0.0
1001
ACAD
1000
AcDbSavedByObjectVersion
1070
     0
1000
AcDbSavedByObjectVersion
1070
     0
  0
VISUALSTYLE
  5
20
102
{ACAD_REACTORS
330
14
102
}
330
14
100
AcDbVisualStyle
  2
Brighten
 70
    12
 71
     2
 72
     2
 73
     0
 90
        0
 40
-0.6
 41
-30.0
 62
     5
 63
     7
 74
     1
 91
        4
 64
     7
 65
   257
 75
     1
175
     1
 42
1.0
 92
        8
 66
     7
 43
1.0
 76
     1
 77
     6
 78
     2
 67
     7
 79
     5
170
     0
171
     0
290
     0
174
     0
 93
        1
 44
50.0
173
     0
291
     1
 45
0.0
1001
ACAD
1000
AcDbSavedByObjectVersion
1070
     0
1000
AcDbSavedByObjectVersion
1070
     0
  0
VISUALSTYLE
  5
24
102
{ACAD_REACTORS
330
14
102
}
330
14
100
AcDbVisualStyle
  2
ColorChange
 70
    16
 71
     2
 72
     2
 73
     3
 90
        0
 40
-0.6
 41
-30.0
 62
     5
 63
     8
 74
     1
 91
        4
 64
     7
 65
   257
 75
     1
175
     1
 42
1.0
 92
        8
 66
     8
 43
1.0
 76
     1
 77
     6
 78
     2
 67
     7
 79
     5
170
     0
171
     0
290
     0
174
     0
 93
        1
 44
0.0
173
     0
291
     1
 45
0.0
1001
ACAD
1000
AcDbSavedByObjectVersion
1070
     0
1000
AcDbSavedByObjectVersion
1070
     0
  0
VISUALSTYLE
  5
1D
102
{ACAD_REACTORS
330
14
102
}
330
14
100
AcDbVisualStyle
  2
Conceptual
 70
     9
 71
     3
 72
     2
 73
     0
 90
        0
 40
-0.6
 41
-30.0
 62
     5
 63
     7
 74
     2
 91
        2
 64
     7
 65
   257
 75
     1
175
     1
 42
40.0
 92
        8
 66
     7
 43
1.0
 76
     1
 77
     6
 78
     2
 67
     7
 79
     3
170
     0
171
     0
290
     0
174
     0
 93
        1
 44
0.0
173
     0
291
     0
 45
0.0
1001
ACAD
1000
AcDbSavedByObjectVersion
1070
     0
1000
AcDbSavedByObjectVersion
1070
     0
  0
VISUALSTYLE
  5
1F
102
{ACAD_REACTORS
330
14
102
}
330
14
100
AcDbVisualStyle
  2
Dim
 70
    11
 71
     2
 72
     2
 73
     0
 90
        0
 40
-0.6
 41
-30.0
 62
     5
 63
     7
 74
     1
 91
        4
 64
     7
 65
   257
 75
     1
175
     1
 42
1.0
 92
        8
 66
     7
 43
1.0
 76
     1
 77
     6
 78
     2
 67
     7
 79
     5
170
     0
171
     0
290
     0
174
     0
 93
        1
 44
-50.0
173
     0
291
     1
 45
0.0
1001
ACAD
1000
AcDbSavedByObjectVersion
1070
     0
1000
AcDbSavedByObjectVersion
1070
     0
  0
VISUALSTYLE
  5
23
102
{ACAD_REACTORS
330
14
102
}
330
14
100
AcDbVisualStyle
  2
Facepattern
 70
    15
 71
     2
 72
     2
 73
     0
 90
        0
 40
-0.6
 41
-30.0
 62
     5
 63
     7
 74
     1
 91
        4
 64
     7
 65
   257
 75
     1
175
     1
 42
1.0
 92
        8
 66
     7
 43
1.0
 76
     1
 77
     6
 78
     2
 67
     7
 79
     5
170
     0
171
     0
290
     0
174
     0
 93
        1
 44
0.0
173
     0
291
     1
 45
0.0
1001
ACAD
1000
AcDbSavedByObjectVersion
1070
     0
1000
AcDbSavedByObjectVersion
1070
     0
  0
VISUALSTYLE
  5
15
102
{ACAD_REACTORS
330
14
102
}
330
14
100
AcDbVisualStyle
  2
Flat
 70
     0
 71
     2
 72
     1
 73
     1
 90
        2
 40
-0.6
 41
30.0
 62
     5
 63
     7
 74
     0
 91
        4
 64
     7
 65
   257
 75
     1
175
     1
 42
1.0
 92
        8
 66
     7
 43
1.0
 76
     1
 77
     6
 78
     2
 67
     7
 79
     5
170
     0
171
     0
290
     0
174
     0
 93
       13
 44
0.0
173
     0
291
     1
 45
0.0
1001
ACAD
1000
AcDbSavedByObjectVersion
1070
     0
1000
AcDbSavedByObjectVersion
1070
     0
  0
VISUALSTYLE
  5
16
102
{ACAD_REACTORS
330
14
102
}
330
14
100
AcDbVisualStyle
  2
FlatWithEdges
 70
     1
 71
     2
 72
     1
 73
     1
 90
        2
 40
-0.6
 41
30.0
 62
     5
 63
     7
 74
     1
 91
        4
 64
     7
 65
   257
 75
     1
175
     1
 42
1.0
 92
        0
 66
   257
 43
1.0
 76
     1
 77
     6
 78
     2
 67
     7
 79
     5
170
     0
171
     0
290
     0
174
     0
 93
       13
 44
0.0
173
     0
291
     1
 45
0.0
1001
ACAD
1000
AcDbSavedByObjectVersion
1070
     0
1000
AcDbSavedByObjectVersion
1070
     0
  0
VISUALSTYLE
  5
17
102
{ACAD_REACTORS
330
14
102
}
330
14
100
AcDbVisualStyle
  2
Gouraud
 70
     2
 71
     2
 72
     2
 73
     1
 90
        2
 40
-0.6
 41
30.0
 62
     5
 63
     7
 74
     0
 91
        4
 64
     7
 65
   257
 75
     1
175
     1
 42
1.0
 92
        0
 66
     7
 43
1.0
 76
     1
 77
     6
 78
     2
 67
     7
 79
     5
170
     0
171
     0
290
     0
174
     0
 93
       13
 44
0.0
173
     0
291
     1
 45
0.0
1001
ACAD
1000
AcDbSavedByObjectVersion
1070
     0
1000
AcDbSavedByObjectVersion
1070
     0
  0
VISUALSTYLE
  5
18
102
{ACAD_REACTORS
330
14
102
}
330
14
100
AcDbVisualStyle
  2
GouraudWithEdges
 70
     3
 71
     2
 72
     2
 73
     1
 90
        2
 40
-0.6
 41
30.0
 62
     5
 63
     7
 74
     1
 91
        4
 64
     7
 65
   257
 75
     1
175
     1
 42
1.0
 92
        0
 66
   257
 43
1.0
 76
     1
 77
     6
 78
     2
 67
     7
 79
     5
170
     0
171
     0
290
     0
174
     0
 93
       13
 44
0.0
173
     0
291
     1
 45
0.0
1001
ACAD
1000
AcDbSavedByObjectVersion
1070
     0
1000
AcDbSavedByObjectVersion
1070
     0
  0
VISUALSTYLE
  5
22
102
{ACAD_REACTORS
330
14
102
}
330
14
100
AcDbVisualStyle
  2
Linepattern
 70
    14
 71
     2
 72
     2
 73
     0
 90
        0
 40
-0.6
 41
-30.0
 62
     5
 63
     7
 74
     1
 91
        4
 64
     7
 65
   257
 75
     7
175
     7
 42
1.0
 92
        8
 66
     7
 43
1.0
 76
     1
 77
     6
 78
     2
 67
     7
 79
     5
170
     0
171
     0
290
     0
174
     0
 93
        1
 44
0.0
173
     0
291
     1
 45
0.0
1001
ACAD
1000
AcDbSavedByObjectVersion
1070
     0
1000
AcDbSavedByObjectVersion
1070
     0
  0
VISUALSTYLE
  5
1E
102
{ACAD_REACTORS
330
14
102
}
330
14
100
AcDbVisualStyle
  2
Realistic
 70
     8
 71
     2
 72
     2
 73
     0
 90
        0
 40
-0.6
 41
-30.0
 62
     5
 63
     7
 74
     1
 91
        0
 64
     7
 65
   257
 75
     1
175
     1
 42
1.0
 92
        8
 66
     8
 43
1.0
 76
     1
 77
     6
 78
     2
 67
     7
 79
     5
170
     0
171
     0
290
     0
174
     0
 93
       13
 44
0.0
173
     0
291
     0
 45
0.0
1001
ACAD
1000
AcDbSavedByObjectVersion
1070
     0
1000
AcDbSavedByObjectVersion
1070
     0
  0
VISUALSTYLE
  5
21
102
{ACAD_REACTORS
330
14
102
}
330
14
100
AcDbVisualStyle
  2
Thicken
 70
    13
 71
     2
 72
     2
 73
     0
 90
        0
 40
-0.6
 41
-30.0
 62
     5
 63
     7
 74
     1
 91
        4
 64
     7
 65
   257
 75
     1
175
     1
 42
1.0
 92
       12
 66
     7
 43
1.0
 76
     1
 77
     6
 78
     2
 67
     7
 79
     5
170
     0
171
     0
290
     0
174
     0
 93
        1
 44
0.0
173
     0
291
     1
 45
0.0
1001
ACAD
1000
AcDbSavedByObjectVersion
1070
     0
1000
AcDbSavedByObjectVersion
1070
     0
  0
DICTIONARYVAR
  5
40B
102
{ACAD_REACTORS
330
40A
102
}
330
40A
100
DictionaryVariables
280
     0
  1
STANDARD
  0
DICTIONARYVAR
  5
40F
102
{ACAD_REACTORS
330
40A
102
}
330
40A
100
DictionaryVariables
280
     0
  1
1
  0
DICTIONARYVAR
  5
40E
102
{ACAD_REACTORS
330
40A
102
}
330
40A
100
DictionaryVariables
280
     0
  1
1
  0
DICTIONARYVAR
  5
40D
102
{ACAD_REACTORS
330
40A
102
}
330
40A
100
DictionaryVariables
280
     0
  1
0
  0
DICTIONARYVAR
  5
40C
102
{ACAD_REACTORS
330
40A
102
}
330
40A
100
DictionaryVariables
280
     0
  1
127
  0
DICTIONARY
  5
427
330
36
100
AcDbDictionary
280
     1
281
     1
  3
ACAD_XREC_ROUNDTRIP
360
428
  0
DICTIONARY
  5
42B
330
3E
100
AcDbDictionary
280
     1
281
     1
  3
ACAD_XREC_ROUNDTRIP
360
42C
  0
DICTIONARY
  5
429
330
3A
100
AcDbDictionary
280
     1
281
     1
  3
ACAD_XREC_ROUNDTRIP
360
42A
  0
DICTIONARY
  5
413
330
12
100
AcDbDictionary
280
     1
281
     1
  3
ACAD_XREC_ROUNDTRIP
360
414
  0
DICTIONARY
  5
411
330
11
100
AcDbDictionary
280
     1
281
     1
  3
ACAD_XREC_ROUNDTRIP
360
412
  0
DICTIONARY
  5
415
330
13
100
AcDbDictionary
280
     1
281
     1
  3
ACAD_XREC_ROUNDTRIP
360
416
  0
DICTIONARY
  5
425
330
32
100
AcDbDictionary
280
     1
281
     1
  3
ACAD_XREC_ROUNDTRIP
360
426
  0
XRECORD
  5
428
102
{ACAD_REACTORS
330
427
102
}
330
427
100
AcDbXrecord
280
     1
102
SHADEPLOT
 70
     0
102
SHADEPLOTRESLEVEL
 70
     2
102
SHADEPLOTCUSTOMDPI
 70
   300
  0
XRECORD
  5
42C
102
{ACAD_REACTORS
330
42B
102
}
330
42B
100
AcDbXrecord
280
     1
102
SHADEPLOT
 70
     0
102
SHADEPLOTRESLEVEL
 70
     2
102
SHADEPLOTCUSTOMDPI
 70
   300
  0
XRECORD
  5
42A
102
{ACAD_REACTORS
330
429
102
}
330
429
100
AcDbXrecord
280
     1
102
SHADEPLOT
 70
     0
102
SHADEPLOTRESLEVEL
 70
     2
102
SHADEPLOTCUSTOMDPI
 70
   300
  0
XRECORD
  5
414
102
{ACAD_REACTORS
330
413
102
}
330
413
100
AcDbXrecord
280
     1
102
MATERIAL
148
0.0
149
0.0
149
0.0
 93
        0
 94
       63
282
     0
 72
     1
 77
     1
171
     1
175
     1
179
     1
273
     0
  0
XRECORD
  5
412
102
{ACAD_REACTORS
330
411
102
}
330
411
100
AcDbXrecord
280
     1
102
MATERIAL
148
0.0
149
0.0
149
0.0
 93
        0
 94
       63
282
     0
 72
     1
 77
     1
171
     1
175
     1
179
     1
273
     0
  0
XRECORD
  5
416
102
{ACAD_REACTORS
330
415
102
}
330
415
100
AcDbXrecord
280
     1
102
MATERIAL
148
0.0
149
0.0
149
0.0
 93
        0
 94
       63
282
     0
 72
     1
 77
     1
171
     1
175
     1
179
     1
273
     0
  0
XRECORD
  5
426
102
{ACAD_REACTORS
330
425
102
}
330
425
100
AcDbXrecord
280
     1
102
ACAD_ROUNDTRIP_PRE2007_TABLESTYLE
 90
      512
 91
        0
  1

 92
      512
 93
        0
  2

 94
      512
 95
        0
  3

  0
ENDSEC
  0
EOF
