  0
SECTION
  2
HEADER
  9
$ACADVER
  1
AC1015
  9
$ACADMAINTVER
 70
    18
  9
$DWGCODEPAGE
  3
ANSI_1252
  9
$INSBASE
 10
0.0
 20
0.0
 30
0.0
  9
$EXTMIN
 10
0.0
 20
0.0
 30
0.0
  9
$EXTMAX
 10
3500.0
 20
2000.0
 30
0.0
  9
$LIMMIN
 10
0.0
 20
0.0
  9
$LIMMAX
 10
3500.0
 20
2000.0
  9
$ORTHOMODE
 70
     0
  9
$REGENMODE
 70
     1
  9
$FILLMODE
 70
     1
  9
$QTEXTMODE
 70
     0
  9
$MIRRTEXT
 70
     0
  9
$LTSCALE
 40
1.0
  9
$ATTMODE
 70
     1
  9
$TEXTSIZE
 40
0.2
  9
$TRACEWID
 40
0.05
  9
$TEXTSTYLE
  7
Standard
  9
$CLAYER
  8
0
  9
$CELTYPE
  6
ByLayer
  9
$CECOLOR
 62
   256
  9
$CELTSCALE
 40
1.0
  9
$DISPSILH
 70
     0
  9
$DIMSCALE
 40
1.0
  9
$DIMASZ
 40
1.799999999999999
  9
$DIMEXO
 40
0.0625
  9
$DIMDLI
 40
0.38
  9
$DIMRND
 40
0.0
  9
$DIMDLE
 40
0.0
  9
$DIMEXE
 40
0.18
  9
$DIMTP
 40
0.0
  9
$DIMTM
 40
0.0
  9
$DIMTXT
 40
0.3499999940395355
  9
$DIMCEN
 40
0.09
  9
$DIMTSZ
 40
0.0
  9
$DIMTOL
 70
     0
  9
$DIMLIM
 70
     0
  9
$DIMTIH
 70
     1
  9
$DIMTOH
 70
     1
  9
$DIMSE1
 70
     0
  9
$DIMSE2
 70
     0
  9
$DIMTAD
 70
     0
  9
$DIMZIN
 70
     0
  9
$DIMBLK
  1

  9
$DIMASO
 70
     1
  9
$DIMSHO
 70
     1
  9
$DIMPOST
  1

  9
$DIMAPOST
  1

  9
$DIMALT
 70
     0
  9
$DIMALTD
 70
     2
  9
$DIMALTF
 40
25.4
  9
$DIMLFAC
 40
1.0
  9
$DIMTOFL
 70
     0
  9
$DIMTVP
 40
0.0
  9
$DIMTIX
 70
     0
  9
$DIMSOXD
 70
     0
  9
$DIMSAH
 70
     0
  9
$DIMBLK1
  1

  9
$DIMBLK2
  1

  9
$DIMSTYLE
  2
Standard
  9
$DIMCLRD
 70
     0
  9
$DIMCLRE
 70
     0
  9
$DIMCLRT
 70
     0
  9
$DIMTFAC
 40
1.0
  9
$DIMGAP
 40
0.09
  9
$DIMJUST
 70
     0
  9
$DIMSD1
 70
     0
  9
$DIMSD2
 70
     0
  9
$DIMTOLJ
 70
     1
  9
$DIMTZIN
 70
     0
  9
$DIMALTZ
 70
     0
  9
$DIMALTTZ
 70
     0
  9
$DIMUPT
 70
     0
  9
$DIMDEC
 70
     4
  9
$DIMTDEC
 70
     4
  9
$DIMALTU
 70
     2
  9
$DIMALTTD
 70
     2
  9
$DIMTXSTY
  7
Standard
  9
$DIMAUNIT
 70
     0
  9
$DIMADEC
 70
     0
  9
$DIMALTRND
 40
0.0
  9
$DIMAZIN
 70
     0
  9
$DIMDSEP
 70
    46
  9
$DIMATFIT
 70
     3
  9
$DIMFRAC
 70
     0
  9
$DIMLDRBLK
  1

  9
$DIMLUNIT
 70
     2
  9
$DIMLWD
 70
    -2
  9
$DIMLWE
 70
    -2
  9
$DIMTMOVE
 70
     0
  9
$LUNITS
 70
     2
  9
$LUPREC
 70
     4
  9
$SKETCHINC
 40
0.1
  9
$FILLETRAD
 40
0.0
  9
$AUNITS
 70
     0
  9
$AUPREC
 70
     0
  9
$MENU
  1
.
  9
$ELEVATION
 40
0.0
  9
$PELEVATION
 40
0.0
  9
$THICKNESS
 40
0.0
  9
$LIMCHECK
 70
     0
  9
$CHAMFERA
 40
0.0
  9
$CHAMFERB
 40
0.0
  9
$CHAMFERC
 40
0.0
  9
$CHAMFERD
 40
0.0
  9
$SKPOLY
 70
     0
  9
$TDCREATE
 40
2454089.398276759
  9
$TDUCREATE
 40
2454089.356610093
  9
$TDUPDATE
 40
2454089.398276759
  9
$TDUUPDATE
 40
2454089.356610093
  9
$TDINDWG
 40
0.0000485764
  9
$TDUSRTIMER
 40
0.0000485764
  9
$USRTIMER
 70
     1
  9
$ANGBASE
 50
0.0
  9
$ANGDIR
 70
     0
  9
$PDMODE
 70
     0
  9
$PDSIZE
 40
0.0
  9
$PLINEWID
 40
0.0
  9
$SPLFRAME
 70
     0
  9
$SPLINETYPE
 70
     6
  9
$SPLINESEGS
 70
     8
  9
$HANDSEED
  5
3F4
  9
$SURFTAB1
 70
     6
  9
$SURFTAB2
 70
     6
  9
$SURFTYPE
 70
     6
  9
$SURFU
 70
     6
  9
$SURFV
 70
     6
  9
$UCSBASE
  2

  9
$UCSNAME
  2

  9
$UCSORG
 10
0.0
 20
0.0
 30
0.0
  9
$UCSXDIR
 10
1.0
 20
0.0
 30
0.0
  9
$UCSYDIR
 10
0.0
 20
1.0
 30
0.0
  9
$UCSORTHOREF
  2

  9
$UCSORTHOVIEW
 70
     0
  9
$UCSORGTOP
 10
0.0
 20
0.0
 30
0.0
  9
$UCSORGBOTTOM
 10
0.0
 20
0.0
 30
0.0
  9
$UCSORGLEFT
 10
0.0
 20
0.0
 30
0.0
  9
$UCSORGRIGHT
 10
0.0
 20
0.0
 30
0.0
  9
$UCSORGFRONT
 10
0.0
 20
0.0
 30
0.0
  9
$UCSORGBACK
 10
0.0
 20
0.0
 30
0.0
  9
$PUCSBASE
  2

  9
$PUCSNAME
  2

  9
$PUCSORG
 10
0.0
 20
0.0
 30
0.0
  9
$PUCSXDIR
 10
1.0
 20
0.0
 30
0.0
  9
$PUCSYDIR
 10
0.0
 20
1.0
 30
0.0
  9
$PUCSORTHOREF
  2

  9
$PUCSORTHOVIEW
 70
     0
  9
$PUCSORGTOP
 10
0.0
 20
0.0
 30
0.0
  9
$PUCSORGBOTTOM
 10
0.0
 20
0.0
 30
0.0
  9
$PUCSORGLEFT
 10
0.0
 20
0.0
 30
0.0
  9
$PUCSORGRIGHT
 10
0.0
 20
0.0
 30
0.0
  9
$PUCSORGFRONT
 10
0.0
 20
0.0
 30
0.0
  9
$PUCSORGBACK
 10
0.0
 20
0.0
 30
0.0
  9
$USERI1
 70
     0
  9
$USERI2
 70
     0
  9
$USERI3
 70
     0
  9
$USERI4
 70
     0
  9
$USERI5
 70
     0
  9
$USERR1
 40
0.0
  9
$USERR2
 40
0.0
  9
$USERR3
 40
0.0
  9
$USERR4
 40
0.0
  9
$USERR5
 40
0.0
  9
$WORLDVIEW
 70
     1
  9
$SHADEDGE
 70
     3
  9
$SHADEDIF
 70
    70
  9
$TILEMODE
 70
     1
  9
$MAXACTVP
 70
    64
  9
$PINSBASE
 10
0.0
 20
0.0
 30
0.0
  9
$PLIMCHECK
 70
     0
  9
$PEXTMIN
 10
0.0
 20
0.0
 30
0.0
  9
$PEXTMAX
 10
3500.0
 20
2000.0
 30
0.0
  9
$PLIMMIN
 10
0.0
 20
0.0
  9
$PLIMMAX
 10
3500.0
 20
2000.0
  9
$UNITMODE
 70
     0
  9
$VISRETAIN
 70
     1
  9
$PLINEGEN
 70
     0
  9
$PSLTSCALE
 70
     1
  9
$TREEDEPTH
 70
  3020
  9
$CMLSTYLE
  2
Standard
  9
$CMLJUST
 70
     0
  9
$CMLSCALE
 40
1.0
  9
$PROXYGRAPHICS
 70
     1
  9
$MEASUREMENT
 70
     1
  9
$CELWEIGHT
370
    -1
  9
$ENDCAPS
280
     0
  9
$JOINSTYLE
280
     0
  9
$LWDISPLAY
290
     0
  9
$INSUNITS
 70
     0
  9
$HYPERLINKBASE
  1

  9
$STYLESHEET
  1

  9
$XEDIT
290
     1
  9
$CEPSNTYPE
380
     0
  9
$PSTYLEMODE
290
     1
  9
$FINGERPRINTGUID
  2
{92461F4F-35A6-44FE-9327-56DAFC409A55}
  9
$VERSIONGUID
  2
{45A63DB6-E52E-42FB-A2EF-AC48A3751C06}
  9
$EXTNAMES
290
     1
  9
$PSVPSCALE
 40
0.0
  9
$OLESTARTUP
290
     0
  0
ENDSEC
  0
SECTION
  2
CLASSES
  0
CLASS
  1
ACDBDICTIONARYWDFLT
  2
AcDbDictionaryWithDefault
  3
ObjectDBX Classes
 90
        0
280
     0
281
     0
  0
CLASS
  1
MATERIAL
  2
AcDbMaterial
  3
ObjectDBX Classes
 90
     1024
280
     0
281
     0
  0
CLASS
  1
VISUALSTYLE
  2
AcDbVisualStyle
  3
ObjectDBX Classes
 90
     4095
280
     0
281
     0
  0
CLASS
  1
TABLESTYLE
  2
AcDbTableStyle
  3
ObjectDBX Classes
 90
     4095
280
     0
281
     0
  0
CLASS
  1
DICTIONARYVAR
  2
AcDbDictionaryVar
  3
ObjectDBX Classes
 90
        0
280
     0
281
     0
  0
CLASS
  1
ACDBPLACEHOLDER
  2
AcDbPlaceHolder
  3
ObjectDBX Classes
 90
        0
280
     0
281
     0
  0
CLASS
  1
LAYOUT
  2
AcDbLayout
  3
ObjectDBX Classes
 90
        0
280
     0
281
     0
  0
ENDSEC
  0
SECTION
  2
TABLES
  0
TABLE
  2
VPORT
  5
8
330
0
100
AcDbSymbolTable
 70
     1
  0
VPORT
  5
28
330
8
100
AcDbSymbolTableRecord
100
AcDbViewportTableRecord
  2
*Active
 70
     0
 10
0.0
 20
0.0
 11
1.0
 21
1.0
 12
1750.0
 22
1000.0
 13
0.0
 23
0.0
 14
1.0
 24
1.0
 15
0.0
 25
0.0
 16
0.0
 26
0.0
 36
1.0
 17
0.0
 27
0.0
 37
0.0
 40
2000.0
 41
1.75
 42
50.0
 43
0.0
 44
0.0
 50
0.0
 51
0.0
 71
     0
 72
   100
 73
     1
 74
     1
 75
     0
 76
     0
 77
     0
 78
     0
281
     0
 65
     1
110
0.0
120
0.0
130
0.0
111
1.0
121
0.0
131
0.0
112
0.0
122
1.0
132
0.0
 79
     0
146
0.0
  0
ENDTAB
  0
TABLE
  2
LTYPE
  5
5
330
0
100
AcDbSymbolTable
 70
    59
  0
LTYPE
  5
29
330
5
100
AcDbSymbolTableRecord
100
AcDbLinetypeTableRecord
  2
ByBlock
 70
     0
  3

 72
    65
 73
     0
 40
0.0
  0
LTYPE
  5
2A
330
5
100
AcDbSymbolTableRecord
100
AcDbLinetypeTableRecord
  2
ByLayer
 70
     0
  3

 72
    65
 73
     0
 40
0.0
  0
LTYPE
  5
2B
330
5
100
AcDbSymbolTableRecord
100
AcDbLinetypeTableRecord
  2
Continuous
 70
     0
  3
Solid line
 72
    65
 73
     0
 40
0.0
  0
LTYPE
  5
40
330
5
100
AcDbSymbolTableRecord
100
AcDbLinetypeTableRecord
  2
Section_View_Lines
 70
     0
  3
Section View Lines
 72
    65
 73
     4
 40
0.8406
 49
0.6614
 74
     0
 49
-0.0827
 74
     0
 49
0.0138
 74
     0
 49
-0.0827
 74
     0
  0
LTYPE
  5
41
330
5
100
AcDbSymbolTableRecord
100
AcDbLinetypeTableRecord
  2
CHAIN
 70
     0
  3
Chain ____ _ ____ _ ____ _ ____ _ ____ _ ____
 72
    65
 73
     4
 40
0.3543
 49
0.2362
 74
     0
 49
-0.0295
 74
     0
 49
0.0591
 74
     0
 49
-0.0295
 74
     0
  0
LTYPE
  5
42
330
5
100
AcDbSymbolTableRecord
100
AcDbLinetypeTableRecord
  2
DASH_DOT
 70
     0
  3
Dash dot _._._._._._._._._._._._._._._.
 72
    65
 73
     4
 40
0.37
 49
0.24
 74
     0
 49
-0.06
 74
     0
 49
0.01
 74
     0
 49
-0.06
 74
     0
  0
LTYPE
  5
43
330
5
100
AcDbSymbolTableRecord
100
AcDbLinetypeTableRecord
  2
DASH_DOUBLE_DOT
 70
     0
  3
Dash Double Dot __ __ . __ __ . __ __ . __ _
 72
    65
 73
     6
 40
0.4398000000000001
 49
0.24
 74
     0
 49
-0.06
 74
     0
 49
0.0098
 74
     0
 49
-0.06
 74
     0
 49
0.01
 74
     0
 49
-0.06
 74
     0
  0
LTYPE
  5
44
330
5
100
AcDbSymbolTableRecord
100
AcDbLinetypeTableRecord
  2
DASH_TRIPLE_DOT
 70
     0
  3
Dash Triple-Dot _ . . . _ . . . _ . . . _
 72
    65
 73
     8
 40
0.51
 49
0.24
 74
     0
 49
-0.06
 74
     0
 49
0.01
 74
     0
 49
-0.06
 74
     0
 49
0.01
 74
     0
 49
-0.06
 74
     0
 49
0.01
 74
     0
 49
-0.06
 74
     0
  0
LTYPE
  5
45
330
5
100
AcDbSymbolTableRecord
100
AcDbLinetypeTableRecord
  2
DASHED
 70
     0
  3
Dashed __ __ __ __ __ __ __ __ __ __ __ __ __ _
 72
    65
 73
     2
 40
0.2067
 49
0.1654
 74
     0
 49
-0.0413
 74
     0
  0
LTYPE
  5
46
330
5
100
AcDbSymbolTableRecord
100
AcDbLinetypeTableRecord
  2
DASHED_SPACE
 70
     0
  3
Dashed Space _._._._._._._._._._._._._._._.
 72
    65
 73
     2
 40
0.2067
 49
0.1654
 74
     0
 49
-0.0413
 74
     0
  0
LTYPE
  5
47
330
5
100
AcDbSymbolTableRecord
100
AcDbLinetypeTableRecord
  2
DOTTED
 70
     0
  3
Dotted . . . . . . . . . . . . . . . . . . . . 
 72
    65
 73
     2
 40
0.0482
 49
0.0069
 74
     0
 49
-0.0413
 74
     0
  0
LTYPE
  5
48
330
5
100
AcDbSymbolTableRecord
100
AcDbLinetypeTableRecord
  2
DOUBLE_DASH_CHAIN
 70
     0
  3
Double Dash Chain ___ _ _ ___ _ _ ___ _ _ ___ _
 72
    65
 73
     6
 40
1.240299999999998
 49
0.6614
 74
     0
 49
-0.0827
 74
     0
 49
0.1654
 74
     0
 49
-0.0827
 74
     0
 49
0.1654
 74
     0
 49
-0.0827
 74
     0
  0
LTYPE
  5
49
330
5
100
AcDbSymbolTableRecord
100
AcDbLinetypeTableRecord
  2
DOUBLE_DASH_DOT
 70
     0
  3
Double Dash Dot __ __ . __ __ . __ __ . __ _
 72
    65
 73
     6
 40
0.6700000000000001
 49
0.24
 74
     0
 49
-0.06
 74
     0
 49
0.24
 74
     0
 49
-0.06
 74
     0
 49
0.01
 74
     0
 49
-0.06
 74
     0
  0
LTYPE
  5
4A
330
5
100
AcDbSymbolTableRecord
100
AcDbLinetypeTableRecord
  2
DOUBLE_DASH_DOUBLE_DOT
 70
     0
  3
Double-dash double-dot _ _ . . _ _ . . _
 72
    65
 73
     8
 40
0.7400000000000002
 49
0.24
 74
     0
 49
-0.06
 74
     0
 49
0.24
 74
     0
 49
-0.06
 74
     0
 49
0.01
 74
     0
 49
-0.06
 74
     0
 49
0.01
 74
     0
 49
-0.06
 74
     0
  0
LTYPE
  5
4B
330
5
100
AcDbSymbolTableRecord
100
AcDbLinetypeTableRecord
  2
DOUBLE_DASH_TRIPLE_DOT
 70
     0
  3
Double Dash Triple Dot __ __ . . . __ __ . . .
 72
    65
 73
    10
 40
0.8100000000000001
 49
0.24
 74
     0
 49
-0.06
 74
     0
 49
0.24
 74
     0
 49
-0.06
 74
     0
 49
0.01
 74
     0
 49
-0.06
 74
     0
 49
0.01
 74
     0
 49
-0.06
 74
     0
 49
0.01
 74
     0
 49
-0.06
 74
     0
  0
LTYPE
  5
4C
330
5
100
AcDbSymbolTableRecord
100
AcDbLinetypeTableRecord
  2
LONG_DASH_DOTTED
 70
     0
  3
Long-Dash Dot ____ . ____ . ____ . ____ . _
 72
    65
 73
     4
 40
0.3001
 49
0.2362
 74
     0
 49
-0.0295
 74
     0
 49
0.0049
 74
     0
 49
-0.0295
 74
     0
  0
LTYPE
  5
4D
330
5
100
AcDbSymbolTableRecord
100
AcDbLinetypeTableRecord
  2
LONG_DASH_DOUBLE_DOT
 70
     0
  3
Long Dash Double Dot ____ . . ____ . . ____ . .
 72
    65
 73
     6
 40
0.3345
 49
0.2362
 74
     0
 49
-0.0295
 74
     0
 49
0.0049
 74
     0
 49
-0.0295
 74
     0
 49
0.0049
 74
     0
 49
-0.0295
 74
     0
  0
LTYPE
  5
4E
330
5
100
AcDbSymbolTableRecord
100
AcDbLinetypeTableRecord
  2
LONG_DASH_TRIPLE_DOT
 70
     0
  3
Long Dash Triple Dot ____ ... ____ ... ____
 72
    65
 73
     8
 40
0.75
 49
0.48
 74
     0
 49
-0.06
 74
     0
 49
0.01
 74
     0
 49
-0.06
 74
     0
 49
0.01
 74
     0
 49
-0.06
 74
     0
 49
0.01
 74
     0
 49
-0.06
 74
     0
  0
LTYPE
  5
4F
330
5
100
AcDbSymbolTableRecord
100
AcDbLinetypeTableRecord
  2
BORDER
 70
     0
  3
Border __ __ . __ __ . __ __ . __ __ . __ __ .
 72
    65
 73
     6
 40
44.45
 49
12.7
 74
     0
 49
-6.349999999999998
 74
     0
 49
12.7
 74
     0
 49
-6.349999999999998
 74
     0
 49
0.0
 74
     0
 49
-6.349999999999998
 74
     0
  0
LTYPE
  5
50
330
5
100
AcDbSymbolTableRecord
100
AcDbLinetypeTableRecord
  2
BORDER2
 70
     0
  3
Border (.5x) __.__.__.__.__.__.__.__.__.__.__.
 72
    65
 73
     6
 40
22.225
 49
6.349999999999998
 74
     0
 49
-3.174999999999998
 74
     0
 49
6.349999999999998
 74
     0
 49
-3.174999999999998
 74
     0
 49
0.0
 74
     0
 49
-3.174999999999998
 74
     0
  0
LTYPE
  5
51
330
5
100
AcDbSymbolTableRecord
100
AcDbLinetypeTableRecord
  2
BORDERX2
 70
     0
  3
Border (2x) ____  ____  .  ____  ____  .  ___
 72
    65
 73
     6
 40
88.9
 49
25.4
 74
     0
 49
-12.7
 74
     0
 49
25.4
 74
     0
 49
-12.7
 74
     0
 49
0.0
 74
     0
 49
-12.7
 74
     0
  0
LTYPE
  5
52
330
5
100
AcDbSymbolTableRecord
100
AcDbLinetypeTableRecord
  2
CENTER
 70
     0
  3
Center ____ _ ____ _ ____ _ ____ _ ____ _ ____
 72
    65
 73
     4
 40
50.8
 49
31.75
 74
     0
 49
-6.349999999999998
 74
     0
 49
6.349999999999998
 74
     0
 49
-6.349999999999998
 74
     0
  0
LTYPE
  5
53
330
5
100
AcDbSymbolTableRecord
100
AcDbLinetypeTableRecord
  2
CENTER2
 70
     0
  3
Center (.5x) ___ _ ___ _ ___ _ ___ _ ___ _ ___
 72
    65
 73
     4
 40
28.575
 49
19.05
 74
     0
 49
-3.174999999999998
 74
     0
 49
3.174999999999998
 74
     0
 49
-3.174999999999998
 74
     0
  0
LTYPE
  5
54
330
5
100
AcDbSymbolTableRecord
100
AcDbLinetypeTableRecord
  2
CENTERX2
 70
     0
  3
Center (2x) ________  __  ________  __  _____
 72
    65
 73
     4
 40
101.6
 49
63.5
 74
     0
 49
-12.7
 74
     0
 49
12.7
 74
     0
 49
-12.7
 74
     0
  0
LTYPE
  5
55
330
5
100
AcDbSymbolTableRecord
100
AcDbLinetypeTableRecord
  2
DASHDOT2
 70
     0
  3
Dash dot (.5x) _._._._._._._._._._._._._._._.
 72
    65
 73
     4
 40
12.7
 49
6.349999999999998
 74
     0
 49
-3.174999999999998
 74
     0
 49
0.0
 74
     0
 49
-3.174999999999998
 74
     0
  0
LTYPE
  5
56
330
5
100
AcDbSymbolTableRecord
100
AcDbLinetypeTableRecord
  2
DASHDOTX2
 70
     0
  3
Dash dot (2x) ____  .  ____  .  ____  .  ___
 72
    65
 73
     4
 40
50.8
 49
25.4
 74
     0
 49
-12.7
 74
     0
 49
0.0
 74
     0
 49
-12.7
 74
     0
  0
LTYPE
  5
57
330
5
100
AcDbSymbolTableRecord
100
AcDbLinetypeTableRecord
  2
DASHED2
 70
     0
  3
Dashed (.5x) _ _ _ _ _ _ _ _ _ _ _ _ _ _ _ _ _
 72
    65
 73
     2
 40
9.524999999999996
 49
6.349999999999998
 74
     0
 49
-3.174999999999998
 74
     0
  0
LTYPE
  5
58
330
5
100
AcDbSymbolTableRecord
100
AcDbLinetypeTableRecord
  2
DASHEDX2
 70
     0
  3
Dashed (2x) ____  ____  ____  ____  ____  ___
 72
    65
 73
     2
 40
38.1
 49
25.4
 74
     0
 49
-12.7
 74
     0
  0
LTYPE
  5
59
330
5
100
AcDbSymbolTableRecord
100
AcDbLinetypeTableRecord
  2
DIVIDE
 70
     0
  3
Divide ____ . . ____ . . ____ . . ____ . . ____
 72
    65
 73
     6
 40
31.75
 49
12.7
 74
     0
 49
-6.349999999999998
 74
     0
 49
0.0
 74
     0
 49
-6.349999999999998
 74
     0
 49
0.0
 74
     0
 49
-6.349999999999998
 74
     0
  0
LTYPE
  5
5A
330
5
100
AcDbSymbolTableRecord
100
AcDbLinetypeTableRecord
  2
DIVIDE2
 70
     0
  3
Divide (.5x) __..__..__..__..__..__..__..__.._
 72
    65
 73
     6
 40
15.875
 49
6.349999999999998
 74
     0
 49
-3.174999999999998
 74
     0
 49
0.0
 74
     0
 49
-3.174999999999998
 74
     0
 49
0.0
 74
     0
 49
-3.174999999999998
 74
     0
  0
LTYPE
  5
5B
330
5
100
AcDbSymbolTableRecord
100
AcDbLinetypeTableRecord
  2
DIVIDEX2
 70
     0
  3
Divide (2x) ________  .  .  ________  .  .  _
 72
    65
 73
     6
 40
63.49999999999999
 49
25.4
 74
     0
 49
-12.7
 74
     0
 49
0.0
 74
     0
 49
-12.7
 74
     0
 49
0.0
 74
     0
 49
-12.7
 74
     0
  0
LTYPE
  5
5C
330
5
100
AcDbSymbolTableRecord
100
AcDbLinetypeTableRecord
  2
DOT
 70
     0
  3
Dot . . . . . . . . . . . . . . . . . . . . . .
 72
    65
 73
     2
 40
6.349999999999998
 49
0.0
 74
     0
 49
-6.349999999999998
 74
     0
  0
LTYPE
  5
5D
330
5
100
AcDbSymbolTableRecord
100
AcDbLinetypeTableRecord
  2
DOT2
 70
     0
  3
Dot (.5x) .....................................
 72
    65
 73
     2
 40
3.174999999999998
 49
0.0
 74
     0
 49
-3.174999999999998
 74
     0
  0
LTYPE
  5
5E
330
5
100
AcDbSymbolTableRecord
100
AcDbLinetypeTableRecord
  2
DOTX2
 70
     0
  3
Dot (2x) .  .  .  .  .  .  .  .  .  .  .  .  . 
 72
    65
 73
     2
 40
12.7
 49
0.0
 74
     0
 49
-12.7
 74
     0
  0
LTYPE
  5
5F
330
5
100
AcDbSymbolTableRecord
100
AcDbLinetypeTableRecord
  2
HIDDEN
 70
     0
  3
Hidden __ __ __ __ __ __ __ __ __ __ __ __ __ _
 72
    65
 73
     2
 40
9.524999999999996
 49
6.349999999999998
 74
     0
 49
-3.174999999999998
 74
     0
  0
LTYPE
  5
60
330
5
100
AcDbSymbolTableRecord
100
AcDbLinetypeTableRecord
  2
HIDDEN2
 70
     0
  3
Hidden (.5x) _ _ _ _ _ _ _ _ _ _ _ _ _ _ _ _ _
 72
    65
 73
     2
 40
4.762499999999998
 49
3.174999999999998
 74
     0
 49
-1.587499999999999
 74
     0
  0
LTYPE
  5
61
330
5
100
AcDbSymbolTableRecord
100
AcDbLinetypeTableRecord
  2
HIDDENX2
 70
     0
  3
Hidden (2x) ____ ____ ____ ____ ____ ____ ____
 72
    65
 73
     2
 40
19.05
 49
12.7
 74
     0
 49
-6.349999999999998
 74
     0
  0
LTYPE
  5
62
330
5
100
AcDbSymbolTableRecord
100
AcDbLinetypeTableRecord
  2
PHANTOM
 70
     0
  3
Phantom ______  __  __  ______  __  __  ______
 72
    65
 73
     6
 40
63.5
 49
31.75
 74
     0
 49
-6.349999999999998
 74
     0
 49
6.349999999999998
 74
     0
 49
-6.349999999999998
 74
     0
 49
6.349999999999998
 74
     0
 49
-6.349999999999998
 74
     0
  0
LTYPE
  5
63
330
5
100
AcDbSymbolTableRecord
100
AcDbLinetypeTableRecord
  2
PHANTOM2
 70
     0
  3
Phantom (.5x) ___ _ _ ___ _ _ ___ _ _ ___ _ _
 72
    65
 73
     6
 40
31.75
 49
15.875
 74
     0
 49
-3.174999999999998
 74
     0
 49
3.174999999999998
 74
     0
 49
-3.174999999999998
 74
     0
 49
3.174999999999998
 74
     0
 49
-3.174999999999998
 74
     0
  0
LTYPE
  5
64
330
5
100
AcDbSymbolTableRecord
100
AcDbLinetypeTableRecord
  2
PHANTOMX2
 70
     0
  3
Phantom (2x) ____________    ____    ____   _
 72
    65
 73
     6
 40
127.0
 49
63.5
 74
     0
 49
-12.7
 74
     0
 49
12.7
 74
     0
 49
-12.7
 74
     0
 49
12.7
 74
     0
 49
-12.7
 74
     0
  0
LTYPE
  5
65
330
5
100
AcDbSymbolTableRecord
100
AcDbLinetypeTableRecord
  2
ACAD_ISO02W100
 70
     0
  3
ISO dash __ __ __ __ __ __ __ __ __ __ __ __ __
 72
    65
 73
     2
 40
15.0
 49
12.0
 74
     0
 49
-3.0
 74
     0
  0
LTYPE
  5
66
330
5
100
AcDbSymbolTableRecord
100
AcDbLinetypeTableRecord
  2
ACAD_ISO03W100
 70
     0
  3
ISO dash space __    __    __    __    __    __
 72
    65
 73
     2
 40
30.0
 49
12.0
 74
     0
 49
-18.0
 74
     0
  0
LTYPE
  5
67
330
5
100
AcDbSymbolTableRecord
100
AcDbLinetypeTableRecord
  2
ACAD_ISO04W100
 70
     0
  3
ISO long-dash dot ____ . ____ . ____ . ____ . _
 72
    65
 73
     4
 40
30.0
 49
24.0
 74
     0
 49
-3.0
 74
     0
 49
0.0
 74
     0
 49
-3.0
 74
     0
  0
LTYPE
  5
68
330
5
100
AcDbSymbolTableRecord
100
AcDbLinetypeTableRecord
  2
ACAD_ISO05W100
 70
     0
  3
ISO long-dash double-dot ____ .. ____ .. ____ .
 72
    65
 73
     6
 40
33.0
 49
24.0
 74
     0
 49
-3.0
 74
     0
 49
0.0
 74
     0
 49
-3.0
 74
     0
 49
0.0
 74
     0
 49
-3.0
 74
     0
  0
LTYPE
  5
69
330
5
100
AcDbSymbolTableRecord
100
AcDbLinetypeTableRecord
  2
ACAD_ISO06W100
 70
     0
  3
ISO long-dash triple-dot ____ ... ____ ... ____
 72
    65
 73
     8
 40
36.0
 49
24.0
 74
     0
 49
-3.0
 74
     0
 49
0.0
 74
     0
 49
-3.0
 74
     0
 49
0.0
 74
     0
 49
-3.0
 74
     0
 49
0.0
 74
     0
 49
-3.0
 74
     0
  0
LTYPE
  5
6A
330
5
100
AcDbSymbolTableRecord
100
AcDbLinetypeTableRecord
  2
ACAD_ISO07W100
 70
     0
  3
ISO dot . . . . . . . . . . . . . . . . . . . .
 72
    65
 73
     2
 40
3.0
 49
0.0
 74
     0
 49
-3.0
 74
     0
  0
LTYPE
  5
6B
330
5
100
AcDbSymbolTableRecord
100
AcDbLinetypeTableRecord
  2
ACAD_ISO08W100
 70
     0
  3
ISO long-dash short-dash ____ __ ____ __ ____ _
 72
    65
 73
     4
 40
36.0
 49
24.0
 74
     0
 49
-3.0
 74
     0
 49
6.0
 74
     0
 49
-3.0
 74
     0
  0
LTYPE
  5
6C
330
5
100
AcDbSymbolTableRecord
100
AcDbLinetypeTableRecord
  2
ACAD_ISO09W100
 70
     0
  3
ISO long-dash double-short-dash ____ __ __ ____
 72
    65
 73
     6
 40
45.0
 49
24.0
 74
     0
 49
-3.0
 74
     0
 49
6.0
 74
     0
 49
-3.0
 74
     0
 49
6.0
 74
     0
 49
-3.0
 74
     0
  0
LTYPE
  5
6D
330
5
100
AcDbSymbolTableRecord
100
AcDbLinetypeTableRecord
  2
ACAD_ISO10W100
 70
     0
  3
ISO dash dot __ . __ . __ . __ . __ . __ . __ .
 72
    65
 73
     4
 40
18.0
 49
12.0
 74
     0
 49
-3.0
 74
     0
 49
0.0
 74
     0
 49
-3.0
 74
     0
  0
LTYPE
  5
6E
330
5
100
AcDbSymbolTableRecord
100
AcDbLinetypeTableRecord
  2
ACAD_ISO11W100
 70
     0
  3
ISO double-dash dot __ __ . __ __ . __ __ . __ 
 72
    65
 73
     6
 40
33.0
 49
12.0
 74
     0
 49
-3.0
 74
     0
 49
12.0
 74
     0
 49
-3.0
 74
     0
 49
0.0
 74
     0
 49
-3.0
 74
     0
  0
LTYPE
  5
6F
330
5
100
AcDbSymbolTableRecord
100
AcDbLinetypeTableRecord
  2
ACAD_ISO12W100
 70
     0
  3
ISO dash double-dot __ . . __ . . __ . . __ . .
 72
    65
 73
     6
 40
21.0
 49
12.0
 74
     0
 49
-3.0
 74
     0
 49
0.0
 74
     0
 49
-3.0
 74
     0
 49
0.0
 74
     0
 49
-3.0
 74
     0
  0
LTYPE
  5
70
330
5
100
AcDbSymbolTableRecord
100
AcDbLinetypeTableRecord
  2
ACAD_ISO13W100
 70
     0
  3
ISO double-dash double-dot __ __ . . __ __ . . 
 72
    65
 73
     8
 40
36.0
 49
12.0
 74
     0
 49
-3.0
 74
     0
 49
12.0
 74
     0
 49
-3.0
 74
     0
 49
0.0
 74
     0
 49
-3.0
 74
     0
 49
0.0
 74
     0
 49
-3.0
 74
     0
  0
LTYPE
  5
71
330
5
100
AcDbSymbolTableRecord
100
AcDbLinetypeTableRecord
  2
ACAD_ISO14W100
 70
     0
  3
ISO dash triple-dot __ . . . __ . . . __ . . . 
 72
    65
 73
     8
 40
24.0
 49
12.0
 74
     0
 49
-3.0
 74
     0
 49
0.0
 74
     0
 49
-3.0
 74
     0
 49
0.0
 74
     0
 49
-3.0
 74
     0
 49
0.0
 74
     0
 49
-3.0
 74
     0
  0
LTYPE
  5
72
330
5
100
AcDbSymbolTableRecord
100
AcDbLinetypeTableRecord
  2
ACAD_ISO15W100
 70
     0
  3
ISO double-dash triple-dot __ __ . . . __ __ . 
 72
    65
 73
    10
 40
39.0
 49
12.0
 74
     0
 49
-3.0
 74
     0
 49
12.0
 74
     0
 49
-3.0
 74
     0
 49
0.0
 74
     0
 49
-3.0
 74
     0
 49
0.0
 74
     0
 49
-3.0
 74
     0
 49
0.0
 74
     0
 49
-3.0
 74
     0
  0
LTYPE
  5
75
330
5
100
AcDbSymbolTableRecord
100
AcDbLinetypeTableRecord
  2
FENCELINE1
 70
     0
  3
Fenceline circle ----0-----0----0-----0----0---
 72
    65
 73
     4
 40
36.83
 49
6.349999999999998
 74
     0
 49
-2.54
 74
     4
 75
   133
340
74
 46
2.54
 50
0.0
 44
-2.54
 45
0.0
 49
-2.54
 74
     0
 49
25.4
 74
     0
  0
LTYPE
  5
76
330
5
100
AcDbSymbolTableRecord
100
AcDbLinetypeTableRecord
  2
FENCELINE2
 70
     0
  3
Fenceline square ----[]-----[]----[]-----[]----
 72
    65
 73
     4
 40
36.83
 49
6.349999999999998
 74
     0
 49
-2.54
 74
     4
 75
   132
340
74
 46
2.54
 50
0.0
 44
-2.54
 45
0.0
 49
-2.54
 74
     0
 49
25.4
 74
     0
  0
LTYPE
  5
77
330
5
100
AcDbSymbolTableRecord
100
AcDbLinetypeTableRecord
  2
TRACKS
 70
     0
  3
Tracks -|-|-|-|-|-|-|-|-|-|-|-|-|-|-|-|-|-|-|-|
 72
    65
 73
     2
 40
7.62
 49
3.81
 74
     4
 75
   130
340
74
 46
6.349999999999998
 50
0.0
 44
0.0
 45
0.0
 49
3.81
 74
     0
  0
LTYPE
  5
78
330
5
100
AcDbSymbolTableRecord
100
AcDbLinetypeTableRecord
  2
BATTING
 70
     0
  3
Batting SSSSSSSSSSSSSSSSSSSSSSSSSSSSSSSSSSSSSSS
 72
    65
 73
     4
 40
10.16254
 49
0.00254
 74
     0
 49
-2.54
 74
     4
 75
   134
340
74
 46
2.54
 50
0.0
 44
-2.54
 45
0.0
 49
-5.08
 74
     4
 75
   134
340
74
 46
2.54
 50
180.0
 44
2.54
 45
0.0
 49
-2.54
 74
     0
  0
LTYPE
  5
79
330
5
100
AcDbSymbolTableRecord
100
AcDbLinetypeTableRecord
  2
HOT_WATER_SUPPLY
 70
     0
  3
Hot water supply ---- HW ---- HW ---- HW ----
 72
    65
 73
     3
 40
22.86
 49
12.7
 74
     0
 49
-5.08
 74
     2
 75
     0
340
26
 46
2.54
 50
0.0
 44
-2.54
 45
-1.27
  9
HW
 49
-5.08
 74
     0
  0
LTYPE
  5
7A
330
5
100
AcDbSymbolTableRecord
100
AcDbLinetypeTableRecord
  2
GAS_LINE
 70
     0
  3
Gas line ----GAS----GAS----GAS----GAS----GAS---
 72
    65
 73
     3
 40
24.13
 49
12.7
 74
     0
 49
-5.08
 74
     2
 75
     0
340
26
 46
2.54
 50
0.0
 44
-2.54
 45
-1.27
  9
GAS
 49
-6.349999999999998
 74
     0
  0
LTYPE
  5
7B
330
5
100
AcDbSymbolTableRecord
100
AcDbLinetypeTableRecord
  2
ZIGZAG
 70
     0
  3
Zig zag /\/\/\/\/\/\/\/\/\/\/\/\/\/\/\/\/\/\/\/
 72
    65
 73
     4
 40
20.32254
 49
0.00254
 74
     0
 49
-5.08
 74
     4
 75
   131
340
74
 46
5.08
 50
0.0
 44
-5.08
 45
0.0
 49
-10.16
 74
     4
 75
   131
340
74
 46
5.08
 50
180.0
 44
5.08
 45
0.0
 49
-5.08
 74
     0
  0
ENDTAB
  0
TABLE
  2
LAYER
  5
2
330
0
100
AcDbSymbolTable
 70
     4
  0
LAYER
  5
25
330
2
100
AcDbSymbolTableRecord
100
AcDbLayerTableRecord
  2
0
 70
     0
 62
     7
  6
Continuous
370
    -3
390
F
  0
LAYER
  5
88
330
2
100
AcDbSymbolTableRecord
100
AcDbLayerTableRecord
  2
Rahmen (ISO)
 70
     0
 62
     7
  6
Continuous
370
    70
390
F
  0
LAYER
  5
8C
330
2
100
AcDbSymbolTableRecord
100
AcDbLayerTableRecord
  2
Sichtbar (ISO)
 70
     0
 62
     7
  6
Continuous
370
    50
390
F
  0
LAYER
  5
90
330
2
100
AcDbSymbolTableRecord
100
AcDbLayerTableRecord
  2
Titel (ISO)
 70
     0
 62
     7
  6
Continuous
370
    50
390
F
  0
ENDTAB
  0
TABLE
  2
STYLE
  5
3
330
0
100
AcDbSymbolTable
 70
    11
  0
STYLE
  5
26
330
3
100
AcDbSymbolTableRecord
100
AcDbTextStyleTableRecord
  2
Standard
 70
     0
 40
0.0
 41
1.0
 50
0.0
 71
     0
 42
0.2
  3
isocpeur.ttf
  4

1001
ACAD
1000
ISOCPEUR
1071
      256
  0
STYLE
  5
74
330
3
100
AcDbSymbolTableRecord
100
AcDbTextStyleTableRecord
  2

 70
     1
 40
0.0
 41
1.0
 50
0.0
 71
     0
 42
0.2
  3
ltypeshp.shx
  4

  0
STYLE
  5
94
330
3
100
AcDbSymbolTableRecord
100
AcDbTextStyleTableRecord
  2
Bezeichnungstext (ANSI)
 70
     0
 40
0.0
 41
1.0
 50
0.0
 71
     0
 42
0.2
  3
TAHOMA.TTF
  4

1001
ACAD
1000
Tahoma
1071
      256
  0
STYLE
  5
95
330
3
100
AcDbSymbolTableRecord
100
AcDbTextStyleTableRecord
  2
Bezeichnungstext (DIN)
 70
     0
 40
0.0
 41
1.0
 50
0.0
 71
     0
 42
0.2
  3
isocpeur.ttf
  4

1001
ACAD
1000
ISOCPEUR
1071
      256
  0
STYLE
  5
96
330
3
100
AcDbSymbolTableRecord
100
AcDbTextStyleTableRecord
  2
Bezeichnungstext (ISO)
 70
     0
 40
0.0
 41
1.0
 50
0.0
 71
     0
 42
0.2
  3
TAHOMA.TTF
  4

1001
ACAD
1000
Tahoma
1071
      256
  0
STYLE
  5
97
330
3
100
AcDbSymbolTableRecord
100
AcDbTextStyleTableRecord
  2
Bezeichnungstext (JIS)
 70
     0
 40
0.0
 41
1.0
 50
0.0
 71
     0
 42
0.2
  3
TAHOMA.TTF
  4

1001
ACAD
1000
Tahoma
1071
      256
  0
STYLE
  5
98
330
3
100
AcDbSymbolTableRecord
100
AcDbTextStyleTableRecord
  2
Notiztext (ANSI)
 70
     0
 40
0.0
 41
1.0
 50
0.0
 71
     0
 42
0.2
  3
TAHOMA.TTF
  4

1001
ACAD
1000
Tahoma
1071
      256
  0
STYLE
  5
99
330
3
100
AcDbSymbolTableRecord
100
AcDbTextStyleTableRecord
  2
Notiztext (DIN)
 70
     0
 40
0.0
 41
1.0
 50
0.0
 71
     0
 42
0.2
  3
isocpeur.ttf
  4

1001
ACAD
1000
ISOCPEUR
1071
      256
  0
STYLE
  5
9A
330
3
100
AcDbSymbolTableRecord
100
AcDbTextStyleTableRecord
  2
Notiztext (ISO)
 70
     0
 40
0.0
 41
1.0
 50
0.0
 71
     0
 42
0.2
  3
TAHOMA.TTF
  4

1001
ACAD
1000
Tahoma
1071
      256
  0
STYLE
  5
9B
330
3
100
AcDbSymbolTableRecord
100
AcDbTextStyleTableRecord
  2
Notiztext (JIS)
 70
     0
 40
0.0
 41
1.0
 50
0.0
 71
     0
 42
0.2
  3
TAHOMA.TTF
  4

1001
ACAD
1000
Tahoma
1071
      256
  0
STYLE
  5
147
330
3
100
AcDbSymbolTableRecord
100
AcDbTextStyleTableRecord
  2
Textstil7
 70
     0
 40
0.0
 41
1.0
 50
0.0
 71
     0
 42
0.2
  3
isocpeur.ttf
  4

1001
ACAD
1000
ISOCPEUR
1071
      256
  0
ENDTAB
  0
TABLE
  2
VIEW
  5
6
330
0
100
AcDbSymbolTable
 70
     0
  0
ENDTAB
  0
TABLE
  2
UCS
  5
7
330
0
100
AcDbSymbolTable
 70
     0
  0
ENDTAB
  0
TABLE
  2
APPID
  5
9
330
0
100
AcDbSymbolTable
 70
     1
  0
APPID
  5
27
330
9
100
AcDbSymbolTableRecord
100
AcDbRegAppTableRecord
  2
ACAD
 70
     0
  0
ENDTAB
  0
TABLE
  2
DIMSTYLE
  5
A
330
0
100
AcDbSymbolTable
 70
    11
100
AcDbDimStyleTable
 71
     0
  0
DIMSTYLE
105
3F
330
A
100
AcDbSymbolTableRecord
100
AcDbDimStyleTableRecord
  2
Standard
 70
     0
340
26
  0
DIMSTYLE
105
AA
330
A
100
AcDbSymbolTableRecord
100
AcDbDimStyleTableRecord
  2
Sonstiges Objekt (DIN)
 70
     0
 41
5.0
 42
0.0
 43
6.0
 44
3.174999999999998
 45
0.00000001
 46
10.0
 77
     1
 78
     8
 79
     2
140
5.25
143
0.03937
146
0.6666666666666666
147
0.8
171
     3
172
     1
176
   256
177
   256
178
   256
271
     2
272
     2
274
     3
278
    44
284
     8
286
     8
340
95
341
9C
371
    -1
372
    -1
  0
DIMSTYLE
105
AB
330
A
100
AcDbSymbolTableRecord
100
AcDbDimStyleTableRecord
  2
Sonstiges Objekt (DIN)$7
 70
     0
 41
5.0
 42
0.0
 43
6.0
 44
3.174999999999998
 45
0.00000001
 46
10.0
 77
     1
 78
     8
 79
     2
140
5.25
143
0.03937
146
0.6666666666666666
147
0.8
171
     3
172
     1
176
   256
177
   256
178
   256
271
     2
272
     2
274
     3
278
    44
284
     8
286
     8
340
95
341
9C
371
    25
372
    -1
  0
DIMSTYLE
105
AC
330
A
100
AcDbSymbolTableRecord
100
AcDbDimStyleTableRecord
  2
Standard - Methode 2a (DIN)
 70
     0
 41
2.5
 42
0.8
 43
6.0
 44
3.174999999999998
 45
0.00000001
 46
10.0
 77
     1
 78
     8
 79
     2
140
3.5
143
0.03937
147
0.8
170
     1
171
     3
172
     1
176
   256
177
   256
178
   256
179
     2
271
     2
272
     2
274
     3
278
    44
284
     8
286
     8
340
99
371
    -1
372
    -1
  0
DIMSTYLE
105
AD
330
A
100
AcDbSymbolTableRecord
100
AcDbDimStyleTableRecord
  2
Standard - Methode 2a (DIN)$7
 70
     0
 41
2.5
 42
0.8
 43
6.0
 44
3.174999999999998
 45
0.00000001
 46
10.0
 77
     1
 78
     8
 79
     2
140
3.5
143
0.03937
147
0.8
170
     1
171
     3
172
     1
176
   256
177
   256
178
   256
179
     2
271
     2
272
     2
274
     3
278
    44
284
     8
286
     8
340
99
371
    -1
372
    -1
  0
DIMSTYLE
105
AE
330
A
100
AcDbSymbolTableRecord
100
AcDbDimStyleTableRecord
  2
Standard - Methode 2b (DIN)
 70
     0
 41
2.5
 42
0.0
 43
6.0
 44
3.174999999999998
 45
0.00000001
 46
10.0
 77
     1
 78
     8
 79
     2
140
3.5
143
0.03937
147
0.8
171
     3
172
     1
176
   256
177
   256
178
   256
271
     2
272
     2
274
     3
278
    44
284
     8
286
     8
340
99
371
    -1
372
    -1
  0
DIMSTYLE
105
AF
330
A
100
AcDbSymbolTableRecord
100
AcDbDimStyleTableRecord
  2
Standard - Methode 2b (DIN)$7
 70
     0
 41
2.5
 42
0.0
 43
6.0
 44
3.174999999999998
 45
0.00000001
 46
10.0
 77
     1
 78
     8
 79
     2
140
3.5
143
0.03937
147
0.8
171
     3
172
     1
176
   256
177
   256
178
   256
271
     2
272
     2
274
     3
278
    44
284
     8
286
     8
340
99
371
    -1
372
    -1
  0
DIMSTYLE
105
B0
330
A
100
AcDbSymbolTableRecord
100
AcDbDimStyleTableRecord
  2
Standard (DIN)
 70
     0
 41
2.5
 42
0.8
 43
6.0
 44
3.174999999999998
 45
0.00000001
 46
10.0
 73
     0
 74
     0
 77
     1
140
3.5
143
0.03937
147
0.8
171
     3
172
     1
176
   256
177
   256
178
   256
271
     2
272
     2
274
     3
278
    44
340
99
371
    -1
372
    -1
  0
DIMSTYLE
105
B1
330
A
100
AcDbSymbolTableRecord
100
AcDbDimStyleTableRecord
  2
Standard (DIN)$7
 70
     0
 41
2.5
 42
0.8
 43
6.0
 44
3.174999999999998
 45
0.00000001
 46
10.0
 73
     0
 74
     0
 77
     1
140
3.5
143
0.03937
147
0.8
171
     3
172
     1
176
   256
177
   256
178
   256
271
     2
272
     2
274
     3
278
    44
340
99
371
    -1
372
    -1
  0
DIMSTYLE
105
B2
330
A
100
AcDbSymbolTableRecord
100
AcDbDimStyleTableRecord
  2
Alternativ (ISO)
 70
     0
 41
2.5
340
26
342
B3
  0
DIMSTYLE
105
C4
330
A
100
AcDbSymbolTableRecord
100
AcDbDimStyleTableRecord
  2
Bezug (ISO)
 70
     0
 41
2.5
340
26
342
B3
  0
ENDTAB
  0
TABLE
  2
BLOCK_RECORD
  5
1
330
0
100
AcDbSymbolTable
 70
     6
  0
BLOCK_RECORD
  5
37
330
1
100
AcDbSymbolTableRecord
100
AcDbBlockTableRecord
  2
*Model_Space
340
3A
  0
BLOCK_RECORD
  5
33
330
1
100
AcDbSymbolTableRecord
100
AcDbBlockTableRecord
  2
*Paper_Space
340
36
  0
BLOCK_RECORD
  5
3B
330
1
100
AcDbSymbolTableRecord
100
AcDbBlockTableRecord
  2
*Paper_Space0
340
3E
  0
BLOCK_RECORD
  5
9C
330
1
100
AcDbSymbolTableRecord
100
AcDbBlockTableRecord
  2
Filled-1
340
0
  0
BLOCK_RECORD
  5
B3
330
1
100
AcDbSymbolTableRecord
100
AcDbBlockTableRecord
  2
_Closed
340
0
  0
BLOCK_RECORD
  5
BA
330
1
100
AcDbSymbolTableRecord
100
AcDbBlockTableRecord
  2
DatumFilled45
340
0
  0
BLOCK_RECORD
  5
C5
330
1
100
AcDbSymbolTableRecord
100
AcDbBlockTableRecord
  2
Ränder Default Border
340
0
102
{BLKREFS
331
216
102
}
  0
BLOCK_RECORD
  5
217
330
1
100
AcDbSymbolTableRecord
100
AcDbBlockTableRecord
  2
Schriftfelder großes schriftfeld
340
0
102
{BLKREFS
331
259
102
}
  0
ENDTAB
  0
ENDSEC
  0
SECTION
  2
BLOCKS
  0
BLOCK
  5
38
330
37
100
AcDbEntity
  8
0
100
AcDbBlockBegin
  2
*Model_Space
 70
     0
 10
0.0
 20
0.0
 30
0.0
  3
*Model_Space
  1

  0
ENDBLK
  5
39
330
37
100
AcDbEntity
  8
0
100
AcDbBlockEnd
  0
BLOCK
  5
34
330
33
100
AcDbEntity
 67
     1
  8
0
100
AcDbBlockBegin
  2
*Paper_Space
 70
     0
 10
0.0
 20
0.0
 30
0.0
  3
*Paper_Space
  1

  0
ENDBLK
  5
35
330
33
100
AcDbEntity
 67
     1
  8
0
100
AcDbBlockEnd
  0
BLOCK
  5
3C
330
3B
100
AcDbEntity
 67
     1
  8
0
100
AcDbBlockBegin
  2
*Paper_Space0
 70
     0
 10
0.0
 20
0.0
 30
0.0
  3
*Paper_Space0
  1

  0
ENDBLK
  5
3D
330
3B
100
AcDbEntity
 67
     1
  8
0
100
AcDbBlockEnd
  0
BLOCK
  5
9D
330
9C
100
AcDbEntity
  8
0
100
AcDbBlockBegin
  2
Filled-1
 70
     0
 10
0.0
 20
0.0
 30
0.0
  3
Filled-1
  1

  0
LINE
  5
9F
330
9C
100
AcDbEntity
  8
0
 62
     0
100
AcDbLine
 10
-1.0
 20
0.0
 30
0.0
 11
0.0
 21
0.0
 31
0.0
  0
POLYLINE
  5
A0
330
9C
100
AcDbEntity
  8
0
 62
     0
100
AcDb2dPolyline
 66
     1
 10
0.0
 20
0.0
 30
0.0
 70
   128
  0
VERTEX
  5
A1
330
A0
100
AcDbEntity
  8
0
 62
     0
100
AcDbVertex
100
AcDb2dVertex
 10
-1.0
 20
-0.1
 30
0.0
  0
VERTEX
  5
A2
330
A0
100
AcDbEntity
  8
0
 62
     0
100
AcDbVertex
100
AcDb2dVertex
 10
0.0
 20
0.0
 30
0.0
  0
VERTEX
  5
A4
330
A0
100
AcDbEntity
  8
0
 62
     0
100
AcDbVertex
100
AcDb2dVertex
 10
-1.0
 20
0.1
 30
0.0
  0
VERTEX
  5
A5
330
A0
100
AcDbEntity
  8
0
 62
     0
100
AcDbVertex
100
AcDb2dVertex
 10
-1.0
 20
-0.1
 30
0.0
  0
SEQEND
  5
A3
330
A0
100
AcDbEntity
  8
0
 62
     0
  0
SOLID
  5
A6
330
9C
100
AcDbEntity
  8
0
 62
     0
100
AcDbTrace
 10
-1.0
 20
-0.1
 30
0.0
 11
0.0
 21
0.0
 31
0.0
 12
-1.0
 22
0.1
 32
0.0
 13
-1.0
 23
-0.1
 33
0.0
  0
LINE
  5
A7
330
9C
100
AcDbEntity
  8
0
 62
     0
100
AcDbLine
 10
-1.0
 20
-0.1
 30
0.0
 11
0.0
 21
0.0
 31
0.0
  0
LINE
  5
A8
330
9C
100
AcDbEntity
  8
0
 62
     0
100
AcDbLine
 10
0.0
 20
0.0
 30
0.0
 11
-1.0
 21
0.1
 31
0.0
  0
LINE
  5
A9
330
9C
100
AcDbEntity
  8
0
 62
     0
100
AcDbLine
 10
-1.0
 20
0.1
 30
0.0
 11
-1.0
 21
-0.1
 31
0.0
  0
ENDBLK
  5
9E
330
9C
100
AcDbEntity
  8
0
100
AcDbBlockEnd
  0
BLOCK
  5
B8
330
B3
100
AcDbEntity
  8
0
100
AcDbBlockBegin
  2
_Closed
 70
     0
 10
0.0
 20
0.0
 30
0.0
  3
_Closed
  1

  0
LINE
  5
B4
330
B3
100
AcDbEntity
  8
0
  6
ByBlock
 62
     0
370
    -2
100
AcDbLine
 10
-1.0
 20
0.1666666666666666
 30
0.0
 11
0.0
 21
0.0
 31
0.0
  0
LINE
  5
B5
330
B3
100
AcDbEntity
  8
0
  6
ByBlock
 62
     0
370
    -2
100
AcDbLine
 10
0.0
 20
0.0
 30
0.0
 11
-1.0
 21
-0.1666666666666666
 31
0.0
  0
LINE
  5
B6
330
B3
100
AcDbEntity
  8
0
  6
ByBlock
 62
     0
370
    -2
100
AcDbLine
 10
-1.0
 20
0.1666666666666666
 30
0.0
 11
-1.0
 21
-0.1666666666666666
 31
0.0
  0
LINE
  5
B7
330
B3
100
AcDbEntity
  8
0
  6
ByBlock
 62
     0
370
    -2
100
AcDbLine
 10
0.0
 20
0.0
 30
0.0
 11
-1.0
 21
0.0
 31
0.0
  0
ENDBLK
  5
B9
330
B3
100
AcDbEntity
  8
0
100
AcDbBlockEnd
  0
BLOCK
  5
BB
330
BA
100
AcDbEntity
  8
0
100
AcDbBlockBegin
  2
DatumFilled45
 70
     0
 10
0.0
 20
0.0
 30
0.0
  3
DatumFilled45
  1

  0
POLYLINE
  5
BD
330
BA
100
AcDbEntity
  8
0
 62
     0
100
AcDb2dPolyline
 66
     1
 10
0.0
 20
0.0
 30
0.0
 70
   128
  0
VERTEX
  5
BE
330
BD
100
AcDbEntity
  8
0
 62
     0
100
AcDbVertex
100
AcDb2dVertex
 10
0.0
 20
1.0
 30
0.0
  0
VERTEX
  5
BF
330
BD
100
AcDbEntity
  8
0
 62
     0
100
AcDbVertex
100
AcDb2dVertex
 10
0.0
 20
-1.0
 30
0.0
  0
VERTEX
  5
C1
330
BD
100
AcDbEntity
  8
0
 62
     0
100
AcDbVertex
100
AcDb2dVertex
 10
-1.0
 20
0.0
 30
0.0
  0
VERTEX
  5
C2
330
BD
100
AcDbEntity
  8
0
 62
     0
100
AcDbVertex
100
AcDb2dVertex
 10
0.0
 20
1.0
 30
0.0
  0
SEQEND
  5
C0
330
BD
100
AcDbEntity
  8
0
 62
     0
  0
SOLID
  5
C3
330
BA
100
AcDbEntity
  8
0
 62
     0
100
AcDbTrace
 10
0.0
 20
1.0
 30
0.0
 11
0.0
 21
-1.0
 31
0.0
 12
-1.0
 22
0.0
 32
0.0
 13
0.0
 23
1.0
 33
0.0
  0
ENDBLK
  5
BC
330
BA
100
AcDbEntity
  8
0
100
AcDbBlockEnd
  0
BLOCK
  5
C6
330
C5
100
AcDbEntity
  8
0
100
AcDbBlockBegin
  2
Ränder Default Border
 70
     0
 10
0.0
 20
0.0
 30
0.0
  3
Ränder Default Border
  1

  0
POLYLINE
  5
C8
330
C5
100
AcDbEntity
  8
Rahmen (ISO)
100
AcDb2dPolyline
 66
     1
 10
0.0
 20
0.0
 30
0.0
 70
   128
  0
VERTEX
  5
C9
330
C8
100
AcDbEntity
  8
Rahmen (ISO)
100
AcDbVertex
100
AcDb2dVertex
 10
20.0
 20
20.0
 30
0.0
  0
VERTEX
  5
CA
330
C8
100
AcDbEntity
  8
Rahmen (ISO)
100
AcDbVertex
100
AcDb2dVertex
 10
20.0
 20
1980.0
 30
0.0
  0
VERTEX
  5
CC
330
C8
100
AcDbEntity
  8
Rahmen (ISO)
100
AcDbVertex
100
AcDb2dVertex
 10
3480.0
 20
1980.0
 30
0.0
  0
VERTEX
  5
CD
330
C8
100
AcDbEntity
  8
Rahmen (ISO)
100
AcDbVertex
100
AcDb2dVertex
 10
3480.0
 20
20.0
 30
0.0
  0
VERTEX
  5
CE
330
C8
100
AcDbEntity
  8
Rahmen (ISO)
100
AcDbVertex
100
AcDb2dVertex
 10
20.0
 20
20.0
 30
0.0
  0
SEQEND
  5
CB
330
C8
100
AcDbEntity
  8
Rahmen (ISO)
  0
POLYLINE
  5
CF
330
C5
100
AcDbEntity
  8
Rahmen (ISO)
100
AcDb2dPolyline
 66
     1
 10
0.0
 20
0.0
 30
0.0
 70
   128
  0
VERTEX
  5
D0
330
CF
100
AcDbEntity
  8
Rahmen (ISO)
100
AcDbVertex
100
AcDb2dVertex
 10
1750.0
 20
0.0
 30
0.0
  0
VERTEX
  5
D1
330
CF
100
AcDbEntity
  8
Rahmen (ISO)
100
AcDbVertex
100
AcDb2dVertex
 10
1750.0
 20
20.0
 30
0.0
  0
VERTEX
  5
D3
330
CF
100
AcDbEntity
  8
Rahmen (ISO)
100
AcDbVertex
100
AcDb2dVertex
 10
1744.226531982422
 20
10.0
 30
0.0
  0
VERTEX
  5
D4
330
CF
100
AcDbEntity
  8
Rahmen (ISO)
100
AcDbVertex
100
AcDb2dVertex
 10
1755.773468017578
 20
10.0
 30
0.0
  0
VERTEX
  5
D5
330
CF
100
AcDbEntity
  8
Rahmen (ISO)
100
AcDbVertex
100
AcDb2dVertex
 10
1750.0
 20
20.0
 30
0.0
  0
SEQEND
  5
D2
330
CF
100
AcDbEntity
  8
Rahmen (ISO)
  0
POLYLINE
  5
D6
330
C5
100
AcDbEntity
  8
Rahmen (ISO)
100
AcDb2dPolyline
 66
     1
 10
0.0
 20
0.0
 30
0.0
 70
   128
  0
VERTEX
  5
D7
330
D6
100
AcDbEntity
  8
Rahmen (ISO)
100
AcDbVertex
100
AcDb2dVertex
 10
1750.0
 20
2000.0
 30
0.0
  0
VERTEX
  5
D8
330
D6
100
AcDbEntity
  8
Rahmen (ISO)
100
AcDbVertex
100
AcDb2dVertex
 10
1750.0
 20
1980.0
 30
0.0
  0
VERTEX
  5
DA
330
D6
100
AcDbEntity
  8
Rahmen (ISO)
100
AcDbVertex
100
AcDb2dVertex
 10
1744.226531982422
 20
1990.0
 30
0.0
  0
VERTEX
  5
DB
330
D6
100
AcDbEntity
  8
Rahmen (ISO)
100
AcDbVertex
100
AcDb2dVertex
 10
1755.773468017578
 20
1990.0
 30
0.0
  0
VERTEX
  5
DC
330
D6
100
AcDbEntity
  8
Rahmen (ISO)
100
AcDbVertex
100
AcDb2dVertex
 10
1750.0
 20
1980.0
 30
0.0
  0
SEQEND
  5
D9
330
D6
100
AcDbEntity
  8
Rahmen (ISO)
  0
POLYLINE
  5
DD
330
C5
100
AcDbEntity
  8
Rahmen (ISO)
100
AcDb2dPolyline
 66
     1
 10
0.0
 20
0.0
 30
0.0
 70
   128
  0
VERTEX
  5
DE
330
DD
100
AcDbEntity
  8
Rahmen (ISO)
100
AcDbVertex
100
AcDb2dVertex
 10
0.0
 20
1000.0
 30
0.0
  0
VERTEX
  5
DF
330
DD
100
AcDbEntity
  8
Rahmen (ISO)
100
AcDbVertex
100
AcDb2dVertex
 10
20.0
 20
1000.0
 30
0.0
  0
VERTEX
  5
E1
330
DD
100
AcDbEntity
  8
Rahmen (ISO)
100
AcDbVertex
100
AcDb2dVertex
 10
10.0
 20
1005.773468017578
 30
0.0
  0
VERTEX
  5
E2
330
DD
100
AcDbEntity
  8
Rahmen (ISO)
100
AcDbVertex
100
AcDb2dVertex
 10
10.0
 20
994.2265319824219
 30
0.0
  0
VERTEX
  5
E3
330
DD
100
AcDbEntity
  8
Rahmen (ISO)
100
AcDbVertex
100
AcDb2dVertex
 10
20.0
 20
1000.0
 30
0.0
  0
SEQEND
  5
E0
330
DD
100
AcDbEntity
  8
Rahmen (ISO)
  0
POLYLINE
  5
E4
330
C5
100
AcDbEntity
  8
Rahmen (ISO)
100
AcDb2dPolyline
 66
     1
 10
0.0
 20
0.0
 30
0.0
 70
   128
  0
VERTEX
  5
E5
330
E4
100
AcDbEntity
  8
Rahmen (ISO)
100
AcDbVertex
100
AcDb2dVertex
 10
3500.0
 20
1000.0
 30
0.0
  0
VERTEX
  5
E6
330
E4
100
AcDbEntity
  8
Rahmen (ISO)
100
AcDbVertex
100
AcDb2dVertex
 10
3480.0
 20
1000.0
 30
0.0
  0
VERTEX
  5
E8
330
E4
100
AcDbEntity
  8
Rahmen (ISO)
100
AcDbVertex
100
AcDb2dVertex
 10
3490.0
 20
1005.773468017578
 30
0.0
  0
VERTEX
  5
E9
330
E4
100
AcDbEntity
  8
Rahmen (ISO)
100
AcDbVertex
100
AcDb2dVertex
 10
3490.0
 20
994.2265319824219
 30
0.0
  0
VERTEX
  5
EA
330
E4
100
AcDbEntity
  8
Rahmen (ISO)
100
AcDbVertex
100
AcDb2dVertex
 10
3480.0
 20
1000.0
 30
0.0
  0
SEQEND
  5
E7
330
E4
100
AcDbEntity
  8
Rahmen (ISO)
  0
LINE
  5
EB
330
C5
100
AcDbEntity
  8
Rahmen (ISO)
100
AcDbLine
 10
72.91666507720947
 20
20.0
 30
0.0
 11
72.91666507720947
 21
16.10000014305114
 31
0.0
  0
LINE
  5
EC
330
C5
100
AcDbEntity
  8
Rahmen (ISO)
100
AcDbLine
 10
72.91666507720947
 20
1980.0
 30
0.0
 11
72.91666507720947
 21
1983.899993896484
 31
0.0
  0
LINE
  5
ED
330
C5
100
AcDbEntity
  8
Rahmen (ISO)
100
AcDbLine
 10
145.8333301544189
 20
20.0
 30
0.0
 11
145.8333301544189
 21
16.10000014305114
 31
0.0
  0
LINE
  5
EE
330
C5
100
AcDbEntity
  8
Rahmen (ISO)
100
AcDbLine
 10
145.8333301544189
 20
1980.0
 30
0.0
 11
145.8333301544189
 21
1983.899993896484
 31
0.0
  0
LINE
  5
EF
330
C5
100
AcDbEntity
  8
Rahmen (ISO)
100
AcDbLine
 10
218.75
 20
20.0
 30
0.0
 11
218.75
 21
16.10000014305114
 31
0.0
  0
LINE
  5
F0
330
C5
100
AcDbEntity
  8
Rahmen (ISO)
100
AcDbLine
 10
218.75
 20
1980.0
 30
0.0
 11
218.75
 21
1983.899993896484
 31
0.0
  0
LINE
  5
F1
330
C5
100
AcDbEntity
  8
Rahmen (ISO)
100
AcDbLine
 10
291.6666603088379
 20
20.0
 30
0.0
 11
291.6666603088379
 21
16.10000014305114
 31
0.0
  0
LINE
  5
F2
330
C5
100
AcDbEntity
  8
Rahmen (ISO)
100
AcDbLine
 10
291.6666603088379
 20
1980.0
 30
0.0
 11
291.6666603088379
 21
1983.899993896484
 31
0.0
  0
LINE
  5
F3
330
C5
100
AcDbEntity
  8
Rahmen (ISO)
100
AcDbLine
 10
364.5833206176758
 20
20.0
 30
0.0
 11
364.5833206176758
 21
16.10000014305114
 31
0.0
  0
LINE
  5
F4
330
C5
100
AcDbEntity
  8
Rahmen (ISO)
100
AcDbLine
 10
364.5833206176758
 20
1980.0
 30
0.0
 11
364.5833206176758
 21
1983.899993896484
 31
0.0
  0
LINE
  5
F5
330
C5
100
AcDbEntity
  8
Rahmen (ISO)
100
AcDbLine
 10
437.5
 20
20.0
 30
0.0
 11
437.5
 21
16.10000014305114
 31
0.0
  0
LINE
  5
F6
330
C5
100
AcDbEntity
  8
Rahmen (ISO)
100
AcDbLine
 10
437.5
 20
1980.0
 30
0.0
 11
437.5
 21
1983.899993896484
 31
0.0
  0
LINE
  5
F7
330
C5
100
AcDbEntity
  8
Rahmen (ISO)
100
AcDbLine
 10
510.4166793823242
 20
20.0
 30
0.0
 11
510.4166793823242
 21
16.10000014305114
 31
0.0
  0
LINE
  5
F8
330
C5
100
AcDbEntity
  8
Rahmen (ISO)
100
AcDbLine
 10
510.4166793823242
 20
1980.0
 30
0.0
 11
510.4166793823242
 21
1983.899993896484
 31
0.0
  0
LINE
  5
F9
330
C5
100
AcDbEntity
  8
Rahmen (ISO)
100
AcDbLine
 10
583.3333206176757
 20
20.0
 30
0.0
 11
583.3333206176757
 21
16.10000014305114
 31
0.0
  0
LINE
  5
FA
330
C5
100
AcDbEntity
  8
Rahmen (ISO)
100
AcDbLine
 10
583.3333206176757
 20
1980.0
 30
0.0
 11
583.3333206176757
 21
1983.899993896484
 31
0.0
  0
LINE
  5
FB
330
C5
100
AcDbEntity
  8
Rahmen (ISO)
100
AcDbLine
 10
656.25
 20
20.0
 30
0.0
 11
656.25
 21
16.10000014305114
 31
0.0
  0
LINE
  5
FC
330
C5
100
AcDbEntity
  8
Rahmen (ISO)
100
AcDbLine
 10
656.25
 20
1980.0
 30
0.0
 11
656.25
 21
1983.899993896484
 31
0.0
  0
LINE
  5
FD
330
C5
100
AcDbEntity
  8
Rahmen (ISO)
100
AcDbLine
 10
729.1666412353515
 20
20.0
 30
0.0
 11
729.1666412353515
 21
16.10000014305114
 31
0.0
  0
LINE
  5
FE
330
C5
100
AcDbEntity
  8
Rahmen (ISO)
100
AcDbLine
 10
729.1666412353515
 20
1980.0
 30
0.0
 11
729.1666412353515
 21
1983.899993896484
 31
0.0
  0
LINE
  5
FF
330
C5
100
AcDbEntity
  8
Rahmen (ISO)
100
AcDbLine
 10
802.0833587646484
 20
20.0
 30
0.0
 11
802.0833587646484
 21
16.10000014305114
 31
0.0
  0
LINE
  5
100
330
C5
100
AcDbEntity
  8
Rahmen (ISO)
100
AcDbLine
 10
802.0833587646484
 20
1980.0
 30
0.0
 11
802.0833587646484
 21
1983.899993896484
 31
0.0
  0
LINE
  5
101
330
C5
100
AcDbEntity
  8
Rahmen (ISO)
100
AcDbLine
 10
875.0
 20
20.0
 30
0.0
 11
875.0
 21
16.10000014305114
 31
0.0
  0
LINE
  5
102
330
C5
100
AcDbEntity
  8
Rahmen (ISO)
100
AcDbLine
 10
875.0
 20
1980.0
 30
0.0
 11
875.0
 21
1983.899993896484
 31
0.0
  0
LINE
  5
103
330
C5
100
AcDbEntity
  8
Rahmen (ISO)
100
AcDbLine
 10
947.9166412353515
 20
20.0
 30
0.0
 11
947.9166412353515
 21
16.10000014305114
 31
0.0
  0
LINE
  5
104
330
C5
100
AcDbEntity
  8
Rahmen (ISO)
100
AcDbLine
 10
947.9166412353515
 20
1980.0
 30
0.0
 11
947.9166412353515
 21
1983.899993896484
 31
0.0
  0
LINE
  5
105
330
C5
100
AcDbEntity
  8
Rahmen (ISO)
100
AcDbLine
 10
1020.833358764648
 20
20.0
 30
0.0
 11
1020.833358764648
 21
16.10000014305114
 31
0.0
  0
LINE
  5
106
330
C5
100
AcDbEntity
  8
Rahmen (ISO)
100
AcDbLine
 10
1020.833358764648
 20
1980.0
 30
0.0
 11
1020.833358764648
 21
1983.899993896484
 31
0.0
  0
LINE
  5
107
330
C5
100
AcDbEntity
  8
Rahmen (ISO)
100
AcDbLine
 10
1093.75
 20
20.0
 30
0.0
 11
1093.75
 21
16.10000014305114
 31
0.0
  0
LINE
  5
108
330
C5
100
AcDbEntity
  8
Rahmen (ISO)
100
AcDbLine
 10
1093.75
 20
1980.0
 30
0.0
 11
1093.75
 21
1983.899993896484
 31
0.0
  0
LINE
  5
109
330
C5
100
AcDbEntity
  8
Rahmen (ISO)
100
AcDbLine
 10
1166.666641235351
 20
20.0
 30
0.0
 11
1166.666641235351
 21
16.10000014305114
 31
0.0
  0
LINE
  5
10A
330
C5
100
AcDbEntity
  8
Rahmen (ISO)
100
AcDbLine
 10
1166.666641235351
 20
1980.0
 30
0.0
 11
1166.666641235351
 21
1983.899993896484
 31
0.0
  0
LINE
  5
10B
330
C5
100
AcDbEntity
  8
Rahmen (ISO)
100
AcDbLine
 10
1239.583358764648
 20
20.0
 30
0.0
 11
1239.583358764648
 21
16.10000014305114
 31
0.0
  0
LINE
  5
10C
330
C5
100
AcDbEntity
  8
Rahmen (ISO)
100
AcDbLine
 10
1239.583358764648
 20
1980.0
 30
0.0
 11
1239.583358764648
 21
1983.899993896484
 31
0.0
  0
LINE
  5
10D
330
C5
100
AcDbEntity
  8
Rahmen (ISO)
100
AcDbLine
 10
1312.5
 20
20.0
 30
0.0
 11
1312.5
 21
16.10000014305114
 31
0.0
  0
LINE
  5
10E
330
C5
100
AcDbEntity
  8
Rahmen (ISO)
100
AcDbLine
 10
1312.5
 20
1980.0
 30
0.0
 11
1312.5
 21
1983.899993896484
 31
0.0
  0
LINE
  5
10F
330
C5
100
AcDbEntity
  8
Rahmen (ISO)
100
AcDbLine
 10
1385.416717529297
 20
20.0
 30
0.0
 11
1385.416717529297
 21
16.10000014305114
 31
0.0
  0
LINE
  5
110
330
C5
100
AcDbEntity
  8
Rahmen (ISO)
100
AcDbLine
 10
1385.416717529297
 20
1980.0
 30
0.0
 11
1385.416717529297
 21
1983.899993896484
 31
0.0
  0
LINE
  5
111
330
C5
100
AcDbEntity
  8
Rahmen (ISO)
100
AcDbLine
 10
1458.333282470703
 20
20.0
 30
0.0
 11
1458.333282470703
 21
16.10000014305114
 31
0.0
  0
LINE
  5
112
330
C5
100
AcDbEntity
  8
Rahmen (ISO)
100
AcDbLine
 10
1458.333282470703
 20
1980.0
 30
0.0
 11
1458.333282470703
 21
1983.899993896484
 31
0.0
  0
LINE
  5
113
330
C5
100
AcDbEntity
  8
Rahmen (ISO)
100
AcDbLine
 10
1531.25
 20
20.0
 30
0.0
 11
1531.25
 21
16.10000014305114
 31
0.0
  0
LINE
  5
114
330
C5
100
AcDbEntity
  8
Rahmen (ISO)
100
AcDbLine
 10
1531.25
 20
1980.0
 30
0.0
 11
1531.25
 21
1983.899993896484
 31
0.0
  0
LINE
  5
115
330
C5
100
AcDbEntity
  8
Rahmen (ISO)
100
AcDbLine
 10
1604.166717529297
 20
20.0
 30
0.0
 11
1604.166717529297
 21
16.10000014305114
 31
0.0
  0
LINE
  5
116
330
C5
100
AcDbEntity
  8
Rahmen (ISO)
100
AcDbLine
 10
1604.166717529297
 20
1980.0
 30
0.0
 11
1604.166717529297
 21
1983.899993896484
 31
0.0
  0
LINE
  5
117
330
C5
100
AcDbEntity
  8
Rahmen (ISO)
100
AcDbLine
 10
1677.083282470703
 20
20.0
 30
0.0
 11
1677.083282470703
 21
16.10000014305114
 31
0.0
  0
LINE
  5
118
330
C5
100
AcDbEntity
  8
Rahmen (ISO)
100
AcDbLine
 10
1677.083282470703
 20
1980.0
 30
0.0
 11
1677.083282470703
 21
1983.899993896484
 31
0.0
  0
LINE
  5
119
330
C5
100
AcDbEntity
  8
Rahmen (ISO)
100
AcDbLine
 10
1822.916717529297
 20
20.0
 30
0.0
 11
1822.916717529297
 21
16.10000014305114
 31
0.0
  0
LINE
  5
11A
330
C5
100
AcDbEntity
  8
Rahmen (ISO)
100
AcDbLine
 10
1822.916717529297
 20
1980.0
 30
0.0
 11
1822.916717529297
 21
1983.899993896484
 31
0.0
  0
LINE
  5
11B
330
C5
100
AcDbEntity
  8
Rahmen (ISO)
100
AcDbLine
 10
1895.833282470703
 20
20.0
 30
0.0
 11
1895.833282470703
 21
16.10000014305114
 31
0.0
  0
LINE
  5
11C
330
C5
100
AcDbEntity
  8
Rahmen (ISO)
100
AcDbLine
 10
1895.833282470703
 20
1980.0
 30
0.0
 11
1895.833282470703
 21
1983.899993896484
 31
0.0
  0
LINE
  5
11D
330
C5
100
AcDbEntity
  8
Rahmen (ISO)
100
AcDbLine
 10
1968.75
 20
20.0
 30
0.0
 11
1968.75
 21
16.10000014305114
 31
0.0
  0
LINE
  5
11E
330
C5
100
AcDbEntity
  8
Rahmen (ISO)
100
AcDbLine
 10
1968.75
 20
1980.0
 30
0.0
 11
1968.75
 21
1983.899993896484
 31
0.0
  0
LINE
  5
11F
330
C5
100
AcDbEntity
  8
Rahmen (ISO)
100
AcDbLine
 10
2041.666717529297
 20
20.0
 30
0.0
 11
2041.666717529297
 21
16.10000014305114
 31
0.0
  0
LINE
  5
120
330
C5
100
AcDbEntity
  8
Rahmen (ISO)
100
AcDbLine
 10
2041.666717529297
 20
1980.0
 30
0.0
 11
2041.666717529297
 21
1983.899993896484
 31
0.0
  0
LINE
  5
121
330
C5
100
AcDbEntity
  8
Rahmen (ISO)
100
AcDbLine
 10
2114.583282470703
 20
20.0
 30
0.0
 11
2114.583282470703
 21
16.10000014305114
 31
0.0
  0
LINE
  5
122
330
C5
100
AcDbEntity
  8
Rahmen (ISO)
100
AcDbLine
 10
2114.583282470703
 20
1980.0
 30
0.0
 11
2114.583282470703
 21
1983.899993896484
 31
0.0
  0
LINE
  5
123
330
C5
100
AcDbEntity
  8
Rahmen (ISO)
100
AcDbLine
 10
2187.5
 20
20.0
 30
0.0
 11
2187.5
 21
16.10000014305114
 31
0.0
  0
LINE
  5
124
330
C5
100
AcDbEntity
  8
Rahmen (ISO)
100
AcDbLine
 10
2187.5
 20
1980.0
 30
0.0
 11
2187.5
 21
1983.899993896484
 31
0.0
  0
LINE
  5
125
330
C5
100
AcDbEntity
  8
Rahmen (ISO)
100
AcDbLine
 10
2260.416717529297
 20
20.0
 30
0.0
 11
2260.416717529297
 21
16.10000014305114
 31
0.0
  0
LINE
  5
126
330
C5
100
AcDbEntity
  8
Rahmen (ISO)
100
AcDbLine
 10
2260.416717529297
 20
1980.0
 30
0.0
 11
2260.416717529297
 21
1983.899993896484
 31
0.0
  0
LINE
  5
127
330
C5
100
AcDbEntity
  8
Rahmen (ISO)
100
AcDbLine
 10
2333.333282470703
 20
20.0
 30
0.0
 11
2333.333282470703
 21
16.10000014305114
 31
0.0
  0
LINE
  5
128
330
C5
100
AcDbEntity
  8
Rahmen (ISO)
100
AcDbLine
 10
2333.333282470703
 20
1980.0
 30
0.0
 11
2333.333282470703
 21
1983.899993896484
 31
0.0
  0
LINE
  5
129
330
C5
100
AcDbEntity
  8
Rahmen (ISO)
100
AcDbLine
 10
2406.25
 20
20.0
 30
0.0
 11
2406.25
 21
16.10000014305114
 31
0.0
  0
LINE
  5
12A
330
C5
100
AcDbEntity
  8
Rahmen (ISO)
100
AcDbLine
 10
2406.25
 20
1980.0
 30
0.0
 11
2406.25
 21
1983.899993896484
 31
0.0
  0
LINE
  5
12B
330
C5
100
AcDbEntity
  8
Rahmen (ISO)
100
AcDbLine
 10
2479.166717529297
 20
20.0
 30
0.0
 11
2479.166717529297
 21
16.10000014305114
 31
0.0
  0
LINE
  5
12C
330
C5
100
AcDbEntity
  8
Rahmen (ISO)
100
AcDbLine
 10
2479.166717529297
 20
1980.0
 30
0.0
 11
2479.166717529297
 21
1983.899993896484
 31
0.0
  0
LINE
  5
12D
330
C5
100
AcDbEntity
  8
Rahmen (ISO)
100
AcDbLine
 10
2552.083282470703
 20
20.0
 30
0.0
 11
2552.083282470703
 21
16.10000014305114
 31
0.0
  0
LINE
  5
12E
330
C5
100
AcDbEntity
  8
Rahmen (ISO)
100
AcDbLine
 10
2552.083282470703
 20
1980.0
 30
0.0
 11
2552.083282470703
 21
1983.899993896484
 31
0.0
  0
LINE
  5
12F
330
C5
100
AcDbEntity
  8
Rahmen (ISO)
100
AcDbLine
 10
2625.0
 20
20.0
 30
0.0
 11
2625.0
 21
16.10000014305114
 31
0.0
  0
LINE
  5
130
330
C5
100
AcDbEntity
  8
Rahmen (ISO)
100
AcDbLine
 10
2625.0
 20
1980.0
 30
0.0
 11
2625.0
 21
1983.899993896484
 31
0.0
  0
LINE
  5
131
330
C5
100
AcDbEntity
  8
Rahmen (ISO)
100
AcDbLine
 10
2697.916564941407
 20
20.0
 30
0.0
 11
2697.916564941407
 21
16.10000014305114
 31
0.0
  0
LINE
  5
132
330
C5
100
AcDbEntity
  8
Rahmen (ISO)
100
AcDbLine
 10
2697.916564941407
 20
1980.0
 30
0.0
 11
2697.916564941407
 21
1983.899993896484
 31
0.0
  0
LINE
  5
133
330
C5
100
AcDbEntity
  8
Rahmen (ISO)
100
AcDbLine
 10
2770.833435058594
 20
20.0
 30
0.0
 11
2770.833435058594
 21
16.10000014305114
 31
0.0
  0
LINE
  5
134
330
C5
100
AcDbEntity
  8
Rahmen (ISO)
100
AcDbLine
 10
2770.833435058594
 20
1980.0
 30
0.0
 11
2770.833435058594
 21
1983.899993896484
 31
0.0
  0
LINE
  5
135
330
C5
100
AcDbEntity
  8
Rahmen (ISO)
100
AcDbLine
 10
2843.75
 20
20.0
 30
0.0
 11
2843.75
 21
16.10000014305114
 31
0.0
  0
LINE
  5
136
330
C5
100
AcDbEntity
  8
Rahmen (ISO)
100
AcDbLine
 10
2843.75
 20
1980.0
 30
0.0
 11
2843.75
 21
1983.899993896484
 31
0.0
  0
LINE
  5
137
330
C5
100
AcDbEntity
  8
Rahmen (ISO)
100
AcDbLine
 10
2916.666564941407
 20
20.0
 30
0.0
 11
2916.666564941407
 21
16.10000014305114
 31
0.0
  0
LINE
  5
138
330
C5
100
AcDbEntity
  8
Rahmen (ISO)
100
AcDbLine
 10
2916.666564941407
 20
1980.0
 30
0.0
 11
2916.666564941407
 21
1983.899993896484
 31
0.0
  0
LINE
  5
139
330
C5
100
AcDbEntity
  8
Rahmen (ISO)
100
AcDbLine
 10
2989.583435058594
 20
20.0
 30
0.0
 11
2989.583435058594
 21
16.10000014305114
 31
0.0
  0
LINE
  5
13A
330
C5
100
AcDbEntity
  8
Rahmen (ISO)
100
AcDbLine
 10
2989.583435058594
 20
1980.0
 30
0.0
 11
2989.583435058594
 21
1983.899993896484
 31
0.0
  0
LINE
  5
13B
330
C5
100
AcDbEntity
  8
Rahmen (ISO)
100
AcDbLine
 10
3062.5
 20
20.0
 30
0.0
 11
3062.5
 21
16.10000014305114
 31
0.0
  0
LINE
  5
13C
330
C5
100
AcDbEntity
  8
Rahmen (ISO)
100
AcDbLine
 10
3062.5
 20
1980.0
 30
0.0
 11
3062.5
 21
1983.899993896484
 31
0.0
  0
LINE
  5
13D
330
C5
100
AcDbEntity
  8
Rahmen (ISO)
100
AcDbLine
 10
3135.416564941407
 20
20.0
 30
0.0
 11
3135.416564941407
 21
16.10000014305114
 31
0.0
  0
LINE
  5
13E
330
C5
100
AcDbEntity
  8
Rahmen (ISO)
100
AcDbLine
 10
3135.416564941407
 20
1980.0
 30
0.0
 11
3135.416564941407
 21
1983.899993896484
 31
0.0
  0
LINE
  5
13F
330
C5
100
AcDbEntity
  8
Rahmen (ISO)
100
AcDbLine
 10
3208.333435058594
 20
20.0
 30
0.0
 11
3208.333435058594
 21
16.10000014305114
 31
0.0
  0
LINE
  5
140
330
C5
100
AcDbEntity
  8
Rahmen (ISO)
100
AcDbLine
 10
3208.333435058594
 20
1980.0
 30
0.0
 11
3208.333435058594
 21
1983.899993896484
 31
0.0
  0
LINE
  5
141
330
C5
100
AcDbEntity
  8
Rahmen (ISO)
100
AcDbLine
 10
3281.25
 20
20.0
 30
0.0
 11
3281.25
 21
16.10000014305114
 31
0.0
  0
LINE
  5
142
330
C5
100
AcDbEntity
  8
Rahmen (ISO)
100
AcDbLine
 10
3281.25
 20
1980.0
 30
0.0
 11
3281.25
 21
1983.899993896484
 31
0.0
  0
LINE
  5
143
330
C5
100
AcDbEntity
  8
Rahmen (ISO)
100
AcDbLine
 10
3354.166564941407
 20
20.0
 30
0.0
 11
3354.166564941407
 21
16.10000014305114
 31
0.0
  0
LINE
  5
144
330
C5
100
AcDbEntity
  8
Rahmen (ISO)
100
AcDbLine
 10
3354.166564941407
 20
1980.0
 30
0.0
 11
3354.166564941407
 21
1983.899993896484
 31
0.0
  0
LINE
  5
145
330
C5
100
AcDbEntity
  8
Rahmen (ISO)
100
AcDbLine
 10
3427.083435058594
 20
20.0
 30
0.0
 11
3427.083435058594
 21
16.10000014305114
 31
0.0
  0
LINE
  5
146
330
C5
100
AcDbEntity
  8
Rahmen (ISO)
100
AcDbLine
 10
3427.083435058594
 20
1980.0
 30
0.0
 11
3427.083435058594
 21
1983.899993896484
 31
0.0
  0
MTEXT
  5
148
330
C5
100
AcDbEntity
  8
Rahmen (ISO)
100
AcDbMText
 10
3463.189127619068
 20
1980.4
 30
0.0
 40
3.499999940395355
 41
0.0
 71
     7
 72
     1
  1
1
  7
Textstil7
 73
     1
 44
1.0
1001
ACAD
1000
MTEXTBEGIN
1070
    73
1070
     1
1070
    44
1040
1.0
1070
    74
1070
     0
1000
MTEXTEND
  0
MTEXT
  5
14B
330
C5
100
AcDbEntity
  8
Rahmen (ISO)
100
AcDbMText
 10
3463.189127619068
 20
16.10000005960464
 30
0.0
 40
3.499999940395355
 41
0.0
 71
     7
 72
     1
  1
1
  7
Textstil7
 73
     1
 44
1.0
1001
ACAD
1000
MTEXTBEGIN
1070
    73
1070
     1
1070
    44
1040
1.0
1070
    74
1070
     0
1000
MTEXTEND
  0
MTEXT
  5
14C
330
C5
100
AcDbEntity
  8
Rahmen (ISO)
100
AcDbMText
 10
3389.928317815066
 20
1980.4
 30
0.0
 40
3.499999940395355
 41
0.0
 71
     7
 72
     1
  1
2
  7
Textstil7
 73
     1
 44
1.0
1001
ACAD
1000
MTEXTBEGIN
1070
    73
1070
     1
1070
    44
1040
1.0
1070
    74
1070
     0
1000
MTEXTEND
  0
MTEXT
  5
14D
330
C5
100
AcDbEntity
  8
Rahmen (ISO)
100
AcDbMText
 10
3389.928317815066
 20
16.10000005960464
 30
0.0
 40
3.499999940395355
 41
0.0
 71
     7
 72
     1
  1
2
  7
Textstil7
 73
     1
 44
1.0
1001
ACAD
1000
MTEXTBEGIN
1070
    73
1070
     1
1070
    44
1040
1.0
1070
    74
1070
     0
1000
MTEXTEND
  0
MTEXT
  5
14E
330
C5
100
AcDbEntity
  8
Rahmen (ISO)
100
AcDbMText
 10
3317.011651148398
 20
1980.4
 30
0.0
 40
3.499999940395355
 41
0.0
 71
     7
 72
     1
  1
3
  7
Textstil7
 73
     1
 44
1.0
1001
ACAD
1000
MTEXTBEGIN
1070
    73
1070
     1
1070
    44
1040
1.0
1070
    74
1070
     0
1000
MTEXTEND
  0
MTEXT
  5
14F
330
C5
100
AcDbEntity
  8
Rahmen (ISO)
100
AcDbMText
 10
3317.011651148398
 20
16.10000005960464
 30
0.0
 40
3.499999940395355
 41
0.0
 71
     7
 72
     1
  1
3
  7
Textstil7
 73
     1
 44
1.0
1001
ACAD
1000
MTEXTBEGIN
1070
    73
1070
     1
1070
    44
1040
1.0
1070
    74
1070
     0
1000
MTEXTEND
  0
MTEXT
  5
150
330
C5
100
AcDbEntity
  8
Rahmen (ISO)
100
AcDbMText
 10
3243.919659803311
 20
1980.4
 30
0.0
 40
3.499999940395355
 41
0.0
 71
     7
 72
     1
  1
4
  7
Textstil7
 73
     1
 44
1.0
1001
ACAD
1000
MTEXTBEGIN
1070
    73
1070
     1
1070
    44
1040
1.0
1070
    74
1070
     0
1000
MTEXTEND
  0
MTEXT
  5
151
330
C5
100
AcDbEntity
  8
Rahmen (ISO)
100
AcDbMText
 10
3243.919659803311
 20
16.10000005960464
 30
0.0
 40
3.499999940395355
 41
0.0
 71
     7
 72
     1
  1
4
  7
Textstil7
 73
     1
 44
1.0
1001
ACAD
1000
MTEXTBEGIN
1070
    73
1070
     1
1070
    44
1040
1.0
1070
    74
1070
     0
1000
MTEXTEND
  0
MTEXT
  5
152
330
C5
100
AcDbEntity
  8
Rahmen (ISO)
100
AcDbMText
 10
3171.178317815065
 20
1980.4
 30
0.0
 40
3.499999940395355
 41
0.0
 71
     7
 72
     1
  1
5
  7
Textstil7
 73
     1
 44
1.0
1001
ACAD
1000
MTEXTBEGIN
1070
    73
1070
     1
1070
    44
1040
1.0
1070
    74
1070
     0
1000
MTEXTEND
  0
MTEXT
  5
153
330
C5
100
AcDbEntity
  8
Rahmen (ISO)
100
AcDbMText
 10
3171.178317815065
 20
16.10000005960464
 30
0.0
 40
3.499999940395355
 41
0.0
 71
     7
 72
     1
  1
5
  7
Textstil7
 73
     1
 44
1.0
1001
ACAD
1000
MTEXTBEGIN
1070
    73
1070
     1
1070
    44
1040
1.0
1070
    74
1070
     0
1000
MTEXTEND
  0
MTEXT
  5
154
330
C5
100
AcDbEntity
  8
Rahmen (ISO)
100
AcDbMText
 10
3098.261651148398
 20
1980.4
 30
0.0
 40
3.499999940395355
 41
0.0
 71
     7
 72
     1
  1
6
  7
Textstil7
 73
     1
 44
1.0
1001
ACAD
1000
MTEXTBEGIN
1070
    73
1070
     1
1070
    44
1040
1.0
1070
    74
1070
     0
1000
MTEXTEND
  0
MTEXT
  5
155
330
C5
100
AcDbEntity
  8
Rahmen (ISO)
100
AcDbMText
 10
3098.261651148398
 20
16.10000005960464
 30
0.0
 40
3.499999940395355
 41
0.0
 71
     7
 72
     1
  1
6
  7
Textstil7
 73
     1
 44
1.0
1001
ACAD
1000
MTEXTBEGIN
1070
    73
1070
     1
1070
    44
1040
1.0
1070
    74
1070
     0
1000
MTEXTEND
  0
MTEXT
  5
156
330
C5
100
AcDbEntity
  8
Rahmen (ISO)
100
AcDbMText
 10
3025.340101669231
 20
1980.4
 30
0.0
 40
3.499999940395355
 41
0.0
 71
     7
 72
     1
  1
7
  7
Textstil7
 73
     1
 44
1.0
1001
ACAD
1000
MTEXTBEGIN
1070
    73
1070
     1
1070
    44
1040
1.0
1070
    74
1070
     0
1000
MTEXTEND
  0
MTEXT
  5
157
330
C5
100
AcDbEntity
  8
Rahmen (ISO)
100
AcDbMText
 10
3025.340101669231
 20
16.10000005960464
 30
0.0
 40
3.499999940395355
 41
0.0
 71
     7
 72
     1
  1
7
  7
Textstil7
 73
     1
 44
1.0
1001
ACAD
1000
MTEXTBEGIN
1070
    73
1070
     1
1070
    44
1040
1.0
1070
    74
1070
     0
1000
MTEXTEND
  0
MTEXT
  5
158
330
C5
100
AcDbEntity
  8
Rahmen (ISO)
100
AcDbMText
 10
2952.428317815065
 20
1980.4
 30
0.0
 40
3.499999940395355
 41
0.0
 71
     7
 72
     1
  1
8
  7
Textstil7
 73
     1
 44
1.0
1001
ACAD
1000
MTEXTBEGIN
1070
    73
1070
     1
1070
    44
1040
1.0
1070
    74
1070
     0
1000
MTEXTEND
  0
MTEXT
  5
159
330
C5
100
AcDbEntity
  8
Rahmen (ISO)
100
AcDbMText
 10
2952.428317815065
 20
16.10000005960464
 30
0.0
 40
3.499999940395355
 41
0.0
 71
     7
 72
     1
  1
8
  7
Textstil7
 73
     1
 44
1.0
1001
ACAD
1000
MTEXTBEGIN
1070
    73
1070
     1
1070
    44
1040
1.0
1070
    74
1070
     0
1000
MTEXTEND
  0
MTEXT
  5
15A
330
C5
100
AcDbEntity
  8
Rahmen (ISO)
100
AcDbMText
 10
2879.511651148398
 20
1980.4
 30
0.0
 40
3.499999940395355
 41
0.0
 71
     7
 72
     1
  1
9
  7
Textstil7
 73
     1
 44
1.0
1001
ACAD
1000
MTEXTBEGIN
1070
    73
1070
     1
1070
    44
1040
1.0
1070
    74
1070
     0
1000
MTEXTEND
  0
MTEXT
  5
15B
330
C5
100
AcDbEntity
  8
Rahmen (ISO)
100
AcDbMText
 10
2879.511651148398
 20
16.10000005960464
 30
0.0
 40
3.499999940395355
 41
0.0
 71
     7
 72
     1
  1
9
  7
Textstil7
 73
     1
 44
1.0
1001
ACAD
1000
MTEXTBEGIN
1070
    73
1070
     1
1070
    44
1040
1.0
1070
    74
1070
     0
1000
MTEXTEND
  0
MTEXT
  5
15C
330
C5
100
AcDbEntity
  8
Rahmen (ISO)
100
AcDbMText
 10
2805.715101609626
 20
1980.4
 30
0.0
 40
3.499999940395355
 41
0.0
 71
     7
 72
     1
  1
10
  7
Textstil7
 73
     1
 44
1.0
1001
ACAD
1000
MTEXTBEGIN
1070
    73
1070
     1
1070
    44
1040
1.0
1070
    74
1070
     0
1000
MTEXTEND
  0
MTEXT
  5
15D
330
C5
100
AcDbEntity
  8
Rahmen (ISO)
100
AcDbMText
 10
2805.715101609626
 20
16.10000005960464
 30
0.0
 40
3.499999940395355
 41
0.0
 71
     7
 72
     1
  1
10
  7
Textstil7
 73
     1
 44
1.0
1001
ACAD
1000
MTEXTBEGIN
1070
    73
1070
     1
1070
    44
1040
1.0
1070
    74
1070
     0
1000
MTEXTEND
  0
MTEXT
  5
15E
330
C5
100
AcDbEntity
  8
Rahmen (ISO)
100
AcDbMText
 10
2733.1474609673
 20
1980.4
 30
0.0
 40
3.499999940395355
 41
0.0
 71
     7
 72
     1
  1
11
  7
Textstil7
 73
     1
 44
1.0
1001
ACAD
1000
MTEXTBEGIN
1070
    73
1070
     1
1070
    44
1040
1.0
1070
    74
1070
     0
1000
MTEXTEND
  0
MTEXT
  5
15F
330
C5
100
AcDbEntity
  8
Rahmen (ISO)
100
AcDbMText
 10
2733.1474609673
 20
16.10000005960464
 30
0.0
 40
3.499999940395355
 41
0.0
 71
     7
 72
     1
  1
11
  7
Textstil7
 73
     1
 44
3.637187480926513
1001
ACAD
1000
MTEXTBEGIN
1070
    73
1070
     1
1070
    44
1040
3.637187480926513
1070
    74
1070
     0
1000
MTEXTEND
  0
MTEXT
  5
160
330
C5
100
AcDbEntity
  8
Rahmen (ISO)
100
AcDbMText
 10
2659.881768276292
 20
1980.4
 30
0.0
 40
3.499999940395355
 41
0.0
 71
     7
 72
     1
  1
12
  7
Textstil7
 73
     1
 44
1.0
1001
ACAD
1000
MTEXTBEGIN
1070
    73
1070
     1
1070
    44
1040
1.0
1070
    74
1070
     0
1000
MTEXTEND
  0
MTEXT
  5
161
330
C5
100
AcDbEntity
  8
Rahmen (ISO)
100
AcDbMText
 10
2659.881768276292
 20
16.10000005960464
 30
0.0
 40
3.499999940395355
 41
0.0
 71
     7
 72
     1
  1
12
  7
Textstil7
 73
     1
 44
1.0
1001
ACAD
1000
MTEXTBEGIN
1070
    73
1070
     1
1070
    44
1040
1.0
1070
    74
1070
     0
1000
MTEXTEND
  0
MTEXT
  5
162
330
C5
100
AcDbEntity
  8
Rahmen (ISO)
100
AcDbMText
 10
2586.965101609626
 20
1980.4
 30
0.0
 40
3.499999940395355
 41
0.0
 71
     7
 72
     1
  1
13
  7
Textstil7
 73
     1
 44
1.0
1001
ACAD
1000
MTEXTBEGIN
1070
    73
1070
     1
1070
    44
1040
1.0
1070
    74
1070
     0
1000
MTEXTEND
  0
MTEXT
  5
163
330
C5
100
AcDbEntity
  8
Rahmen (ISO)
100
AcDbMText
 10
2586.965101609626
 20
16.10000005960464
 30
0.0
 40
3.499999940395355
 41
0.0
 71
     7
 72
     1
  1
13
  7
Textstil7
 73
     1
 44
1.0
1001
ACAD
1000
MTEXTBEGIN
1070
    73
1070
     1
1070
    44
1040
1.0
1070
    74
1070
     0
1000
MTEXTEND
  0
MTEXT
  5
164
330
C5
100
AcDbEntity
  8
Rahmen (ISO)
100
AcDbMText
 10
2513.873110264538
 20
1980.4
 30
0.0
 40
3.499999940395355
 41
0.0
 71
     7
 72
     1
  1
14
  7
Textstil7
 73
     1
 44
1.0
1001
ACAD
1000
MTEXTBEGIN
1070
    73
1070
     1
1070
    44
1040
1.0
1070
    74
1070
     0
1000
MTEXTEND
  0
MTEXT
  5
165
330
C5
100
AcDbEntity
  8
Rahmen (ISO)
100
AcDbMText
 10
2513.873110264538
 20
16.10000005960464
 30
0.0
 40
3.499999940395355
 41
0.0
 71
     7
 72
     1
  1
14
  7
Textstil7
 73
     1
 44
1.0
1001
ACAD
1000
MTEXTBEGIN
1070
    73
1070
     1
1070
    44
1040
1.0
1070
    74
1070
     0
1000
MTEXTEND
  0
MTEXT
  5
166
330
C5
100
AcDbEntity
  8
Rahmen (ISO)
100
AcDbMText
 10
2441.131768276292
 20
1980.4
 30
0.0
 40
3.499999940395355
 41
0.0
 71
     7
 72
     1
  1
15
  7
Textstil7
 73
     1
 44
1.0
1001
ACAD
1000
MTEXTBEGIN
1070
    73
1070
     1
1070
    44
1040
1.0
1070
    74
1070
     0
1000
MTEXTEND
  0
MTEXT
  5
167
330
C5
100
AcDbEntity
  8
Rahmen (ISO)
100
AcDbMText
 10
2441.131768276292
 20
16.10000005960464
 30
0.0
 40
3.499999940395355
 41
0.0
 71
     7
 72
     1
  1
15
  7
Textstil7
 73
     1
 44
1.0
1001
ACAD
1000
MTEXTBEGIN
1070
    73
1070
     1
1070
    44
1040
1.0
1070
    74
1070
     0
1000
MTEXTEND
  0
MTEXT
  5
168
330
C5
100
AcDbEntity
  8
Rahmen (ISO)
100
AcDbMText
 10
2368.215101609626
 20
1980.4
 30
0.0
 40
3.499999940395355
 41
0.0
 71
     7
 72
     1
  1
16
  7
Textstil7
 73
     1
 44
1.0
1001
ACAD
1000
MTEXTBEGIN
1070
    73
1070
     1
1070
    44
1040
1.0
1070
    74
1070
     0
1000
MTEXTEND
  0
MTEXT
  5
169
330
C5
100
AcDbEntity
  8
Rahmen (ISO)
100
AcDbMText
 10
2368.215101609626
 20
16.10000005960464
 30
0.0
 40
3.499999940395355
 41
0.0
 71
     7
 72
     1
  1
16
  7
Textstil7
 73
     1
 44
1.0
1001
ACAD
1000
MTEXTBEGIN
1070
    73
1070
     1
1070
    44
1040
1.0
1070
    74
1070
     0
1000
MTEXTEND
  0
MTEXT
  5
16A
330
C5
100
AcDbEntity
  8
Rahmen (ISO)
100
AcDbMText
 10
2295.298434942959
 20
1980.4
 30
0.0
 40
3.499999940395355
 41
0.0
 71
     7
 72
     1
  1
17
  7
Textstil7
 73
     1
 44
1.0
1001
ACAD
1000
MTEXTBEGIN
1070
    73
1070
     1
1070
    44
1040
1.0
1070
    74
1070
     0
1000
MTEXTEND
  0
MTEXT
  5
16B
330
C5
100
AcDbEntity
  8
Rahmen (ISO)
100
AcDbMText
 10
2295.298434942959
 20
16.10000005960464
 30
0.0
 40
3.499999940395355
 41
0.0
 71
     7
 72
     1
  1
17
  7
Textstil7
 73
     1
 44
1.0
1001
ACAD
1000
MTEXTBEGIN
1070
    73
1070
     1
1070
    44
1040
1.0
1070
    74
1070
     0
1000
MTEXTEND
  0
MTEXT
  5
16C
330
C5
100
AcDbEntity
  8
Rahmen (ISO)
100
AcDbMText
 10
2222.381768276292
 20
1980.4
 30
0.0
 40
3.499999940395355
 41
0.0
 71
     7
 72
     1
  1
18
  7
Textstil7
 73
     1
 44
1.0
1001
ACAD
1000
MTEXTBEGIN
1070
    73
1070
     1
1070
    44
1040
1.0
1070
    74
1070
     0
1000
MTEXTEND
  0
MTEXT
  5
16D
330
C5
100
AcDbEntity
  8
Rahmen (ISO)
100
AcDbMText
 10
2222.381768276292
 20
16.10000005960464
 30
0.0
 40
3.499999940395355
 41
0.0
 71
     7
 72
     1
  1
18
  7
Textstil7
 73
     1
 44
1.0
1001
ACAD
1000
MTEXTBEGIN
1070
    73
1070
     1
1070
    44
1040
1.0
1070
    74
1070
     0
1000
MTEXTEND
  0
MTEXT
  5
16E
330
C5
100
AcDbEntity
  8
Rahmen (ISO)
100
AcDbMText
 10
2149.465101609626
 20
1980.4
 30
0.0
 40
3.499999940395355
 41
0.0
 71
     7
 72
     1
  1
19
  7
Textstil7
 73
     1
 44
1.0
1001
ACAD
1000
MTEXTBEGIN
1070
    73
1070
     1
1070
    44
1040
1.0
1070
    74
1070
     0
1000
MTEXTEND
  0
MTEXT
  5
16F
330
C5
100
AcDbEntity
  8
Rahmen (ISO)
100
AcDbMText
 10
2149.465101609626
 20
16.10000005960464
 30
0.0
 40
3.499999940395355
 41
0.0
 71
     7
 72
     1
  1
19
  7
Textstil7
 73
     1
 44
1.0
1001
ACAD
1000
MTEXTBEGIN
1070
    73
1070
     1
1070
    44
1040
1.0
1070
    74
1070
     0
1000
MTEXTEND
  0
MTEXT
  5
170
330
C5
100
AcDbEntity
  8
Rahmen (ISO)
100
AcDbMText
 10
2076.20429188013
 20
1980.4
 30
0.0
 40
3.499999940395355
 41
0.0
 71
     7
 72
     1
  1
20
  7
Textstil7
 73
     1
 44
1.0
1001
ACAD
1000
MTEXTBEGIN
1070
    73
1070
     1
1070
    44
1040
1.0
1070
    74
1070
     0
1000
MTEXTEND
  0
MTEXT
  5
171
330
C5
100
AcDbEntity
  8
Rahmen (ISO)
100
AcDbMText
 10
2076.20429188013
 20
16.10000005960464
 30
0.0
 40
3.499999940395355
 41
0.0
 71
     7
 72
     1
  1
20
  7
Textstil7
 73
     1
 44
1.0
1001
ACAD
1000
MTEXTBEGIN
1070
    73
1070
     1
1070
    44
1040
1.0
1070
    74
1070
     0
1000
MTEXTEND
  0
MTEXT
  5
172
330
C5
100
AcDbEntity
  8
Rahmen (ISO)
100
AcDbMText
 10
2003.636651088793
 20
1980.4
 30
0.0
 40
3.499999940395355
 41
0.0
 71
     7
 72
     1
  1
21
  7
Textstil7
 73
     1
 44
1.0
1001
ACAD
1000
MTEXTBEGIN
1070
    73
1070
     1
1070
    44
1040
1.0
1070
    74
1070
     0
1000
MTEXTEND
  0
MTEXT
  5
173
330
C5
100
AcDbEntity
  8
Rahmen (ISO)
100
AcDbMText
 10
2003.636651088793
 20
16.10000005960464
 30
0.0
 40
3.499999940395355
 41
0.0
 71
     7
 72
     1
  1
21
  7
Textstil7
 73
     1
 44
1.0
1001
ACAD
1000
MTEXTBEGIN
1070
    73
1070
     1
1070
    44
1040
1.0
1070
    74
1070
     0
1000
MTEXTEND
  0
MTEXT
  5
174
330
C5
100
AcDbEntity
  8
Rahmen (ISO)
100
AcDbMText
 10
1930.370958546796
 20
1980.4
 30
0.0
 40
3.499999940395355
 41
0.0
 71
     7
 72
     1
  1
22
  7
Textstil7
 73
     1
 44
1.0
1001
ACAD
1000
MTEXTBEGIN
1070
    73
1070
     1
1070
    44
1040
1.0
1070
    74
1070
     0
1000
MTEXTEND
  0
MTEXT
  5
175
330
C5
100
AcDbEntity
  8
Rahmen (ISO)
100
AcDbMText
 10
1930.370958546796
 20
16.10000005960464
 30
0.0
 40
3.499999940395355
 41
0.0
 71
     7
 72
     1
  1
22
  7
Textstil7
 73
     1
 44
1.0
1001
ACAD
1000
MTEXTBEGIN
1070
    73
1070
     1
1070
    44
1040
1.0
1070
    74
1070
     0
1000
MTEXTEND
  0
MTEXT
  5
176
330
C5
100
AcDbEntity
  8
Rahmen (ISO)
100
AcDbMText
 10
1857.454291880129
 20
1980.4
 30
0.0
 40
3.499999940395355
 41
0.0
 71
     7
 72
     1
  1
23
  7
Textstil7
 73
     1
 44
1.976249933242796
1001
ACAD
1000
MTEXTBEGIN
1070
    73
1070
     1
1070
    44
1040
1.976249933242796
1070
    74
1070
     0
1000
MTEXTEND
  0
MTEXT
  5
177
330
C5
100
AcDbEntity
  8
Rahmen (ISO)
100
AcDbMText
 10
1857.454291880129
 20
16.10000005960464
 30
0.0
 40
3.499999940395355
 41
0.0
 71
     7
 72
     1
  1
23
  7
Textstil7
 73
     1
 44
1.0
1001
ACAD
1000
MTEXTBEGIN
1070
    73
1070
     1
1070
    44
1040
1.0
1070
    74
1070
     0
1000
MTEXTEND
  0
MTEXT
  5
178
330
C5
100
AcDbEntity
  8
Rahmen (ISO)
100
AcDbMText
 10
1784.362300535042
 20
1980.4
 30
0.0
 40
3.499999940395355
 41
0.0
 71
     7
 72
     1
  1
24
  7
Textstil7
 73
     1
 44
1.0
1001
ACAD
1000
MTEXTBEGIN
1070
    73
1070
     1
1070
    44
1040
1.0
1070
    74
1070
     0
1000
MTEXTEND
  0
MTEXT
  5
179
330
C5
100
AcDbEntity
  8
Rahmen (ISO)
100
AcDbMText
 10
1784.362300535042
 20
16.10000005960464
 30
0.0
 40
3.499999940395355
 41
0.0
 71
     7
 72
     1
  1
24
  7
Textstil7
 73
     1
 44
1.0
1001
ACAD
1000
MTEXTBEGIN
1070
    73
1070
     1
1070
    44
1040
1.0
1070
    74
1070
     0
1000
MTEXTEND
  0
MTEXT
  5
17A
330
C5
100
AcDbEntity
  8
Rahmen (ISO)
100
AcDbMText
 10
1711.620958546796
 20
1980.4
 30
0.0
 40
3.499999940395355
 41
0.0
 71
     7
 72
     1
  1
25
  7
Textstil7
 73
     1
 44
1.0
1001
ACAD
1000
MTEXTBEGIN
1070
    73
1070
     1
1070
    44
1040
1.0
1070
    74
1070
     0
1000
MTEXTEND
  0
MTEXT
  5
17B
330
C5
100
AcDbEntity
  8
Rahmen (ISO)
100
AcDbMText
 10
1711.620958546796
 20
16.10000005960464
 30
0.0
 40
3.499999940395355
 41
0.0
 71
     7
 72
     1
  1
25
  7
Textstil7
 73
     1
 44
1.0
1001
ACAD
1000
MTEXTBEGIN
1070
    73
1070
     1
1070
    44
1040
1.0
1070
    74
1070
     0
1000
MTEXTEND
  0
MTEXT
  5
17C
330
C5
100
AcDbEntity
  8
Rahmen (ISO)
100
AcDbMText
 10
1638.70429188013
 20
1980.4
 30
0.0
 40
3.499999940395355
 41
0.0
 71
     7
 72
     1
  1
26
  7
Textstil7
 73
     1
 44
1.976249933242796
1001
ACAD
1000
MTEXTBEGIN
1070
    73
1070
     1
1070
    44
1040
1.976249933242796
1070
    74
1070
     0
1000
MTEXTEND
  0
MTEXT
  5
17D
330
C5
100
AcDbEntity
  8
Rahmen (ISO)
100
AcDbMText
 10
1638.70429188013
 20
16.10000005960464
 30
0.0
 40
3.499999940395355
 41
0.0
 71
     7
 72
     1
  1
26
  7
Textstil7
 73
     1
 44
1.0
1001
ACAD
1000
MTEXTBEGIN
1070
    73
1070
     1
1070
    44
1040
1.0
1070
    74
1070
     0
1000
MTEXTEND
  0
MTEXT
  5
17E
330
C5
100
AcDbEntity
  8
Rahmen (ISO)
100
AcDbMText
 10
1565.787625213463
 20
1980.4
 30
0.0
 40
3.499999940395355
 41
0.0
 71
     7
 72
     1
  1
27
  7
Textstil7
 73
     1
 44
1.0
1001
ACAD
1000
MTEXTBEGIN
1070
    73
1070
     1
1070
    44
1040
1.0
1070
    74
1070
     0
1000
MTEXTEND
  0
MTEXT
  5
17F
330
C5
100
AcDbEntity
  8
Rahmen (ISO)
100
AcDbMText
 10
1565.787625213463
 20
16.10000005960464
 30
0.0
 40
3.499999940395355
 41
0.0
 71
     7
 72
     1
  1
27
  7
Textstil7
 73
     1
 44
1.0
1001
ACAD
1000
MTEXTBEGIN
1070
    73
1070
     1
1070
    44
1040
1.0
1070
    74
1070
     0
1000
MTEXTEND
  0
MTEXT
  5
180
330
C5
100
AcDbEntity
  8
Rahmen (ISO)
100
AcDbMText
 10
1492.870958546797
 20
1980.4
 30
0.0
 40
3.499999940395355
 41
0.0
 71
     7
 72
     1
  1
28
  7
Textstil7
 73
     1
 44
1.0
1001
ACAD
1000
MTEXTBEGIN
1070
    73
1070
     1
1070
    44
1040
1.0
1070
    74
1070
     0
1000
MTEXTEND
  0
MTEXT
  5
181
330
C5
100
AcDbEntity
  8
Rahmen (ISO)
100
AcDbMText
 10
1492.870958546797
 20
16.10000005960464
 30
0.0
 40
3.499999940395355
 41
0.0
 71
     7
 72
     1
  1
28
  7
Textstil7
 73
     1
 44
1.0
1001
ACAD
1000
MTEXTBEGIN
1070
    73
1070
     1
1070
    44
1040
1.0
1070
    74
1070
     0
1000
MTEXTEND
  0
MTEXT
  5
182
330
C5
100
AcDbEntity
  8
Rahmen (ISO)
100
AcDbMText
 10
1419.95429188013
 20
1980.4
 30
0.0
 40
3.499999940395355
 41
0.0
 71
     7
 72
     1
  1
29
  7
Textstil7
 73
     1
 44
1.0
1001
ACAD
1000
MTEXTBEGIN
1070
    73
1070
     1
1070
    44
1040
1.0
1070
    74
1070
     0
1000
MTEXTEND
  0
MTEXT
  5
183
330
C5
100
AcDbEntity
  8
Rahmen (ISO)
100
AcDbMText
 10
1419.95429188013
 20
16.10000005960464
 30
0.0
 40
3.499999940395355
 41
0.0
 71
     7
 72
     1
  1
29
  7
Textstil7
 73
     1
 44
1.0
1001
ACAD
1000
MTEXTBEGIN
1070
    73
1070
     1
1070
    44
1040
1.0
1070
    74
1070
     0
1000
MTEXTEND
  0
MTEXT
  5
184
330
C5
100
AcDbEntity
  8
Rahmen (ISO)
100
AcDbMText
 10
1347.037625213463
 20
1980.4
 30
0.0
 40
3.499999940395355
 41
0.0
 71
     7
 72
     1
  1
30
  7
Textstil7
 73
     1
 44
1.0
1001
ACAD
1000
MTEXTBEGIN
1070
    73
1070
     1
1070
    44
1040
1.0
1070
    74
1070
     0
1000
MTEXTEND
  0
MTEXT
  5
185
330
C5
100
AcDbEntity
  8
Rahmen (ISO)
100
AcDbMText
 10
1347.037625213463
 20
16.10000005960464
 30
0.0
 40
3.499999940395355
 41
0.0
 71
     7
 72
     1
  1
30
  7
Textstil7
 73
     1
 44
1.0
1001
ACAD
1000
MTEXTBEGIN
1070
    73
1070
     1
1070
    44
1040
1.0
1070
    74
1070
     0
1000
MTEXTEND
  0
MTEXT
  5
186
330
C5
100
AcDbEntity
  8
Rahmen (ISO)
100
AcDbMText
 10
1274.469984422127
 20
1980.4
 30
0.0
 40
3.499999940395355
 41
0.0
 71
     7
 72
     1
  1
31
  7
Textstil7
 73
     1
 44
1.0
1001
ACAD
1000
MTEXTBEGIN
1070
    73
1070
     1
1070
    44
1040
1.0
1070
    74
1070
     0
1000
MTEXTEND
  0
MTEXT
  5
187
330
C5
100
AcDbEntity
  8
Rahmen (ISO)
100
AcDbMText
 10
1274.469984422127
 20
16.10000005960464
 30
0.0
 40
3.499999940395355
 41
0.0
 71
     7
 72
     1
  1
31
  7
Textstil7
 73
     1
 44
1.0
1001
ACAD
1000
MTEXTBEGIN
1070
    73
1070
     1
1070
    44
1040
1.0
1070
    74
1070
     0
1000
MTEXTEND
  0
MTEXT
  5
188
330
C5
100
AcDbEntity
  8
Rahmen (ISO)
100
AcDbMText
 10
1201.20429188013
 20
1980.4
 30
0.0
 40
3.499999940395355
 41
0.0
 71
     7
 72
     1
  1
32
  7
Textstil7
 73
     1
 44
1.0
1001
ACAD
1000
MTEXTBEGIN
1070
    73
1070
     1
1070
    44
1040
1.0
1070
    74
1070
     0
1000
MTEXTEND
  0
MTEXT
  5
189
330
C5
100
AcDbEntity
  8
Rahmen (ISO)
100
AcDbMText
 10
1201.20429188013
 20
16.10000005960464
 30
0.0
 40
3.499999940395355
 41
0.0
 71
     7
 72
     1
  1
32
  7
Textstil7
 73
     1
 44
1.0
1001
ACAD
1000
MTEXTBEGIN
1070
    73
1070
     1
1070
    44
1040
1.0
1070
    74
1070
     0
1000
MTEXTEND
  0
MTEXT
  5
18A
330
C5
100
AcDbEntity
  8
Rahmen (ISO)
100
AcDbMText
 10
1128.287625213463
 20
1980.4
 30
0.0
 40
3.499999940395355
 41
0.0
 71
     7
 72
     1
  1
33
  7
Textstil7
 73
     1
 44
1.0
1001
ACAD
1000
MTEXTBEGIN
1070
    73
1070
     1
1070
    44
1040
1.0
1070
    74
1070
     0
1000
MTEXTEND
  0
MTEXT
  5
18B
330
C5
100
AcDbEntity
  8
Rahmen (ISO)
100
AcDbMText
 10
1128.287625213463
 20
16.10000005960464
 30
0.0
 40
3.499999940395355
 41
0.0
 71
     7
 72
     1
  1
33
  7
Textstil7
 73
     1
 44
1.0
1001
ACAD
1000
MTEXTBEGIN
1070
    73
1070
     1
1070
    44
1040
1.0
1070
    74
1070
     0
1000
MTEXTEND
  0
MTEXT
  5
18C
330
C5
100
AcDbEntity
  8
Rahmen (ISO)
100
AcDbMText
 10
1055.195633868376
 20
1980.4
 30
0.0
 40
3.499999940395355
 41
0.0
 71
     7
 72
     1
  1
34
  7
Textstil7
 73
     1
 44
1.0
1001
ACAD
1000
MTEXTBEGIN
1070
    73
1070
     1
1070
    44
1040
1.0
1070
    74
1070
     0
1000
MTEXTEND
  0
MTEXT
  5
18D
330
C5
100
AcDbEntity
  8
Rahmen (ISO)
100
AcDbMText
 10
1055.195633868376
 20
16.10000005960464
 30
0.0
 40
3.499999940395355
 41
0.0
 71
     7
 72
     1
  1
34
  7
Textstil7
 73
     1
 44
1.0
1001
ACAD
1000
MTEXTBEGIN
1070
    73
1070
     1
1070
    44
1040
1.0
1070
    74
1070
     0
1000
MTEXTEND
  0
MTEXT
  5
18E
330
C5
100
AcDbEntity
  8
Rahmen (ISO)
100
AcDbMText
 10
982.4542918801299
 20
1980.4
 30
0.0
 40
3.499999940395355
 41
0.0
 71
     7
 72
     1
  1
35
  7
Textstil7
 73
     1
 44
1.0
1001
ACAD
1000
MTEXTBEGIN
1070
    73
1070
     1
1070
    44
1040
1.0
1070
    74
1070
     0
1000
MTEXTEND
  0
MTEXT
  5
18F
330
C5
100
AcDbEntity
  8
Rahmen (ISO)
100
AcDbMText
 10
982.4542918801299
 20
16.10000005960464
 30
0.0
 40
3.499999940395355
 41
0.0
 71
     7
 72
     1
  1
35
  7
Textstil7
 73
     1
 44
1.0
1001
ACAD
1000
MTEXTBEGIN
1070
    73
1070
     1
1070
    44
1040
1.0
1070
    74
1070
     0
1000
MTEXTEND
  0
MTEXT
  5
190
330
C5
100
AcDbEntity
  8
Rahmen (ISO)
100
AcDbMText
 10
909.5376252134633
 20
1980.4
 30
0.0
 40
3.499999940395355
 41
0.0
 71
     7
 72
     1
  1
36
  7
Textstil7
 73
     1
 44
1.0
1001
ACAD
1000
MTEXTBEGIN
1070
    73
1070
     1
1070
    44
1040
1.0
1070
    74
1070
     0
1000
MTEXTEND
  0
MTEXT
  5
191
330
C5
100
AcDbEntity
  8
Rahmen (ISO)
100
AcDbMText
 10
909.5376252134633
 20
16.10000005960464
 30
0.0
 40
3.499999940395355
 41
0.0
 71
     7
 72
     1
  1
36
  7
Textstil7
 73
     1
 44
1.0
1001
ACAD
1000
MTEXTBEGIN
1070
    73
1070
     1
1070
    44
1040
1.0
1070
    74
1070
     0
1000
MTEXTEND
  0
MTEXT
  5
192
330
C5
100
AcDbEntity
  8
Rahmen (ISO)
100
AcDbMText
 10
836.6209585467967
 20
1980.4
 30
0.0
 40
3.499999940395355
 41
0.0
 71
     7
 72
     1
  1
37
  7
Textstil7
 73
     1
 44
1.0
1001
ACAD
1000
MTEXTBEGIN
1070
    73
1070
     1
1070
    44
1040
1.0
1070
    74
1070
     0
1000
MTEXTEND
  0
MTEXT
  5
193
330
C5
100
AcDbEntity
  8
Rahmen (ISO)
100
AcDbMText
 10
836.6209585467967
 20
16.10000005960464
 30
0.0
 40
3.499999940395355
 41
0.0
 71
     7
 72
     1
  1
37
  7
Textstil7
 73
     1
 44
1.0
1001
ACAD
1000
MTEXTBEGIN
1070
    73
1070
     1
1070
    44
1040
1.0
1070
    74
1070
     0
1000
MTEXTEND
  0
MTEXT
  5
194
330
C5
100
AcDbEntity
  8
Rahmen (ISO)
100
AcDbMText
 10
763.7042918801299
 20
1980.4
 30
0.0
 40
3.499999940395355
 41
0.0
 71
     7
 72
     1
  1
38
  7
Textstil7
 73
     1
 44
1.0
1001
ACAD
1000
MTEXTBEGIN
1070
    73
1070
     1
1070
    44
1040
1.0
1070
    74
1070
     0
1000
MTEXTEND
  0
MTEXT
  5
195
330
C5
100
AcDbEntity
  8
Rahmen (ISO)
100
AcDbMText
 10
763.7042918801299
 20
16.10000005960464
 30
0.0
 40
3.499999940395355
 41
0.0
 71
     7
 72
     1
  1
38
  7
Textstil7
 73
     1
 44
1.0
1001
ACAD
1000
MTEXTBEGIN
1070
    73
1070
     1
1070
    44
1040
1.0
1070
    74
1070
     0
1000
MTEXTEND
  0
MTEXT
  5
196
330
C5
100
AcDbEntity
  8
Rahmen (ISO)
100
AcDbMText
 10
690.7876252134633
 20
1980.4
 30
0.0
 40
3.499999940395355
 41
0.0
 71
     7
 72
     1
  1
39
  7
Textstil7
 73
     1
 44
1.0
1001
ACAD
1000
MTEXTBEGIN
1070
    73
1070
     1
1070
    44
1040
1.0
1070
    74
1070
     0
1000
MTEXTEND
  0
MTEXT
  5
197
330
C5
100
AcDbEntity
  8
Rahmen (ISO)
100
AcDbMText
 10
690.7876252134633
 20
16.10000005960464
 30
0.0
 40
3.499999940395355
 41
0.0
 71
     7
 72
     1
  1
39
  7
Textstil7
 73
     1
 44
1.0
1001
ACAD
1000
MTEXTBEGIN
1070
    73
1070
     1
1070
    44
1040
1.0
1070
    74
1070
     0
1000
MTEXTEND
  0
MTEXT
  5
198
330
C5
100
AcDbEntity
  8
Rahmen (ISO)
100
AcDbMText
 10
617.6956338683756
 20
1980.4
 30
0.0
 40
3.499999940395355
 41
0.0
 71
     7
 72
     1
  1
40
  7
Textstil7
 73
     1
 44
1.0
1001
ACAD
1000
MTEXTBEGIN
1070
    73
1070
     1
1070
    44
1040
1.0
1070
    74
1070
     0
1000
MTEXTEND
  0
MTEXT
  5
199
330
C5
100
AcDbEntity
  8
Rahmen (ISO)
100
AcDbMText
 10
617.6956338683756
 20
16.10000005960464
 30
0.0
 40
3.499999940395355
 41
0.0
 71
     7
 72
     1
  1
40
  7
Textstil7
 73
     1
 44
3.637187480926513
1001
ACAD
1000
MTEXTBEGIN
1070
    73
1070
     1
1070
    44
1040
3.637187480926513
1070
    74
1070
     0
1000
MTEXTEND
  0
MTEXT
  5
19A
330
C5
100
AcDbEntity
  8
Rahmen (ISO)
100
AcDbMText
 10
545.1279930770388
 20
1980.4
 30
0.0
 40
3.499999940395355
 41
0.0
 71
     7
 72
     1
  1
41
  7
Textstil7
 73
     1
 44
1.0
1001
ACAD
1000
MTEXTBEGIN
1070
    73
1070
     1
1070
    44
1040
1.0
1070
    74
1070
     0
1000
MTEXTEND
  0
MTEXT
  5
19B
330
C5
100
AcDbEntity
  8
Rahmen (ISO)
100
AcDbMText
 10
545.1279930770388
 20
16.10000005960464
 30
0.0
 40
3.499999940395355
 41
0.0
 71
     7
 72
     1
  1
41
  7
Textstil7
 73
     1
 44
1.0
1001
ACAD
1000
MTEXTBEGIN
1070
    73
1070
     1
1070
    44
1040
1.0
1070
    74
1070
     0
1000
MTEXTEND
  0
MTEXT
  5
19C
330
C5
100
AcDbEntity
  8
Rahmen (ISO)
100
AcDbMText
 10
471.8623005350422
 20
1980.4
 30
0.0
 40
3.499999940395355
 41
0.0
 71
     7
 72
     1
  1
42
  7
Textstil7
 73
     1
 44
1.0
1001
ACAD
1000
MTEXTBEGIN
1070
    73
1070
     1
1070
    44
1040
1.0
1070
    74
1070
     0
1000
MTEXTEND
  0
MTEXT
  5
19D
330
C5
100
AcDbEntity
  8
Rahmen (ISO)
100
AcDbMText
 10
471.8623005350422
 20
16.10000005960464
 30
0.0
 40
3.499999940395355
 41
0.0
 71
     7
 72
     1
  1
42
  7
Textstil7
 73
     1
 44
1.0
1001
ACAD
1000
MTEXTBEGIN
1070
    73
1070
     1
1070
    44
1040
1.0
1070
    74
1070
     0
1000
MTEXTEND
  0
MTEXT
  5
19E
330
C5
100
AcDbEntity
  8
Rahmen (ISO)
100
AcDbMText
 10
398.9456338683756
 20
1980.4
 30
0.0
 40
3.499999940395355
 41
0.0
 71
     7
 72
     1
  1
43
  7
Textstil7
 73
     1
 44
1.0
1001
ACAD
1000
MTEXTBEGIN
1070
    73
1070
     1
1070
    44
1040
1.0
1070
    74
1070
     0
1000
MTEXTEND
  0
MTEXT
  5
19F
330
C5
100
AcDbEntity
  8
Rahmen (ISO)
100
AcDbMText
 10
398.9456338683756
 20
16.10000005960464
 30
0.0
 40
3.499999940395355
 41
0.0
 71
     7
 72
     1
  1
43
  7
Textstil7
 73
     1
 44
1.0
1001
ACAD
1000
MTEXTBEGIN
1070
    73
1070
     1
1070
    44
1040
1.0
1070
    74
1070
     0
1000
MTEXTEND
  0
MTEXT
  5
1A0
330
C5
100
AcDbEntity
  8
Rahmen (ISO)
100
AcDbMText
 10
325.8536425232879
 20
1980.4
 30
0.0
 40
3.499999940395355
 41
0.0
 71
     7
 72
     1
  1
44
  7
Textstil7
 73
     1
 44
1.0
1001
ACAD
1000
MTEXTBEGIN
1070
    73
1070
     1
1070
    44
1040
1.0
1070
    74
1070
     0
1000
MTEXTEND
  0
MTEXT
  5
1A1
330
C5
100
AcDbEntity
  8
Rahmen (ISO)
100
AcDbMText
 10
325.8536425232879
 20
16.10000005960464
 30
0.0
 40
3.499999940395355
 41
0.0
 71
     7
 72
     1
  1
44
  7
Textstil7
 73
     1
 44
1.0
1001
ACAD
1000
MTEXTBEGIN
1070
    73
1070
     1
1070
    44
1040
1.0
1070
    74
1070
     0
1000
MTEXTEND
  0
MTEXT
  5
1A2
330
C5
100
AcDbEntity
  8
Rahmen (ISO)
100
AcDbMText
 10
253.1123005350423
 20
1980.4
 30
0.0
 40
3.499999940395355
 41
0.0
 71
     7
 72
     1
  1
45
  7
Textstil7
 73
     1
 44
1.0
1001
ACAD
1000
MTEXTBEGIN
1070
    73
1070
     1
1070
    44
1040
1.0
1070
    74
1070
     0
1000
MTEXTEND
  0
MTEXT
  5
1A3
330
C5
100
AcDbEntity
  8
Rahmen (ISO)
100
AcDbMText
 10
253.1123005350423
 20
16.10000005960464
 30
0.0
 40
3.499999940395355
 41
0.0
 71
     7
 72
     1
  1
45
  7
Textstil7
 73
     1
 44
1.0
1001
ACAD
1000
MTEXTBEGIN
1070
    73
1070
     1
1070
    44
1040
1.0
1070
    74
1070
     0
1000
MTEXTEND
  0
MTEXT
  5
1A4
330
C5
100
AcDbEntity
  8
Rahmen (ISO)
100
AcDbMText
 10
180.1956338683756
 20
1980.4
 30
0.0
 40
3.499999940395355
 41
0.0
 71
     7
 72
     1
  1
46
  7
Textstil7
 73
     1
 44
1.0
1001
ACAD
1000
MTEXTBEGIN
1070
    73
1070
     1
1070
    44
1040
1.0
1070
    74
1070
     0
1000
MTEXTEND
  0
MTEXT
  5
1A5
330
C5
100
AcDbEntity
  8
Rahmen (ISO)
100
AcDbMText
 10
180.1956338683756
 20
16.10000005960464
 30
0.0
 40
3.499999940395355
 41
0.0
 71
     7
 72
     1
  1
46
  7
Textstil7
 73
     1
 44
1.0
1001
ACAD
1000
MTEXTBEGIN
1070
    73
1070
     1
1070
    44
1040
1.0
1070
    74
1070
     0
1000
MTEXTEND
  0
MTEXT
  5
1A6
330
C5
100
AcDbEntity
  8
Rahmen (ISO)
100
AcDbMText
 10
107.2789672017089
 20
1980.4
 30
0.0
 40
3.499999940395355
 41
0.0
 71
     7
 72
     1
  1
47
  7
Textstil7
 73
     1
 44
1.0
1001
ACAD
1000
MTEXTBEGIN
1070
    73
1070
     1
1070
    44
1040
1.0
1070
    74
1070
     0
1000
MTEXTEND
  0
MTEXT
  5
1A7
330
C5
100
AcDbEntity
  8
Rahmen (ISO)
100
AcDbMText
 10
107.2789672017089
 20
16.10000005960464
 30
0.0
 40
3.499999940395355
 41
0.0
 71
     7
 72
     1
  1
47
  7
Textstil7
 73
     1
 44
1.0
1001
ACAD
1000
MTEXTBEGIN
1070
    73
1070
     1
1070
    44
1040
1.0
1070
    74
1070
     0
1000
MTEXTEND
  0
MTEXT
  5
1A8
330
C5
100
AcDbEntity
  8
Rahmen (ISO)
100
AcDbMText
 10
34.36230053504226
 20
1980.4
 30
0.0
 40
3.499999940395355
 41
0.0
 71
     7
 72
     1
  1
48
  7
Textstil7
 73
     1
 44
1.0
1001
ACAD
1000
MTEXTBEGIN
1070
    73
1070
     1
1070
    44
1040
1.0
1070
    74
1070
     0
1000
MTEXTEND
  0
MTEXT
  5
1A9
330
C5
100
AcDbEntity
  8
Rahmen (ISO)
100
AcDbMText
 10
34.36230053504226
 20
16.10000005960464
 30
0.0
 40
3.499999940395355
 41
0.0
 71
     7
 72
     1
  1
48
  7
Textstil7
 73
     1
 44
1.0
1001
ACAD
1000
MTEXTBEGIN
1070
    73
1070
     1
1070
    44
1040
1.0
1070
    74
1070
     0
1000
MTEXTEND
  0
LINE
  5
1AA
330
C5
100
AcDbEntity
  8
Rahmen (ISO)
100
AcDbLine
 10
20.0
 20
71.42857074737548
 30
0.0
 11
16.10000014305114
 21
71.42857074737548
 31
0.0
  0
LINE
  5
1AB
330
C5
100
AcDbEntity
  8
Rahmen (ISO)
100
AcDbLine
 10
3480.0
 20
71.42857074737548
 30
0.0
 11
3483.900146484375
 21
71.42857074737548
 31
0.0
  0
LINE
  5
1AC
330
C5
100
AcDbEntity
  8
Rahmen (ISO)
100
AcDbLine
 10
20.0
 20
142.8571414947509
 30
0.0
 11
16.10000014305114
 21
142.8571414947509
 31
0.0
  0
LINE
  5
1AD
330
C5
100
AcDbEntity
  8
Rahmen (ISO)
100
AcDbLine
 10
3480.0
 20
142.8571414947509
 30
0.0
 11
3483.900146484375
 21
142.8571414947509
 31
0.0
  0
LINE
  5
1AE
330
C5
100
AcDbEntity
  8
Rahmen (ISO)
100
AcDbLine
 10
20.0
 20
214.2857170104981
 30
0.0
 11
16.10000014305114
 21
214.2857170104981
 31
0.0
  0
LINE
  5
1AF
330
C5
100
AcDbEntity
  8
Rahmen (ISO)
100
AcDbLine
 10
3480.0
 20
214.2857170104981
 30
0.0
 11
3483.900146484375
 21
214.2857170104981
 31
0.0
  0
LINE
  5
1B0
330
C5
100
AcDbEntity
  8
Rahmen (ISO)
100
AcDbLine
 10
20.0
 20
285.7142829895019
 30
0.0
 11
16.10000014305114
 21
285.7142829895019
 31
0.0
  0
LINE
  5
1B1
330
C5
100
AcDbEntity
  8
Rahmen (ISO)
100
AcDbLine
 10
3480.0
 20
285.7142829895019
 30
0.0
 11
3483.900146484375
 21
285.7142829895019
 31
0.0
  0
LINE
  5
1B2
330
C5
100
AcDbEntity
  8
Rahmen (ISO)
100
AcDbLine
 10
20.0
 20
357.1428680419922
 30
0.0
 11
16.10000014305114
 21
357.1428680419922
 31
0.0
  0
LINE
  5
1B3
330
C5
100
AcDbEntity
  8
Rahmen (ISO)
100
AcDbLine
 10
3480.0
 20
357.1428680419922
 30
0.0
 11
3483.900146484375
 21
357.1428680419922
 31
0.0
  0
LINE
  5
1B4
330
C5
100
AcDbEntity
  8
Rahmen (ISO)
100
AcDbLine
 10
20.0
 20
428.5714340209961
 30
0.0
 11
16.10000014305114
 21
428.5714340209961
 31
0.0
  0
LINE
  5
1B5
330
C5
100
AcDbEntity
  8
Rahmen (ISO)
100
AcDbLine
 10
3480.0
 20
428.5714340209961
 30
0.0
 11
3483.900146484375
 21
428.5714340209961
 31
0.0
  0
LINE
  5
1B6
330
C5
100
AcDbEntity
  8
Rahmen (ISO)
100
AcDbLine
 10
20.0
 20
500.0
 30
0.0
 11
16.10000014305114
 21
500.0
 31
0.0
  0
LINE
  5
1B7
330
C5
100
AcDbEntity
  8
Rahmen (ISO)
100
AcDbLine
 10
3480.0
 20
500.0
 30
0.0
 11
3483.900146484375
 21
500.0
 31
0.0
  0
LINE
  5
1B8
330
C5
100
AcDbEntity
  8
Rahmen (ISO)
100
AcDbLine
 10
20.0
 20
571.4285659790037
 30
0.0
 11
16.10000014305114
 21
571.4285659790037
 31
0.0
  0
LINE
  5
1B9
330
C5
100
AcDbEntity
  8
Rahmen (ISO)
100
AcDbLine
 10
3480.0
 20
571.4285659790037
 30
0.0
 11
3483.900146484375
 21
571.4285659790037
 31
0.0
  0
LINE
  5
1BA
330
C5
100
AcDbEntity
  8
Rahmen (ISO)
100
AcDbLine
 10
20.0
 20
642.8571319580076
 30
0.0
 11
16.10000014305114
 21
642.8571319580076
 31
0.0
  0
LINE
  5
1BB
330
C5
100
AcDbEntity
  8
Rahmen (ISO)
100
AcDbLine
 10
3480.0
 20
642.8571319580076
 30
0.0
 11
3483.900146484375
 21
642.8571319580076
 31
0.0
  0
LINE
  5
1BC
330
C5
100
AcDbEntity
  8
Rahmen (ISO)
100
AcDbLine
 10
20.0
 20
714.2857360839842
 30
0.0
 11
16.10000014305114
 21
714.2857360839842
 31
0.0
  0
LINE
  5
1BD
330
C5
100
AcDbEntity
  8
Rahmen (ISO)
100
AcDbLine
 10
3480.0
 20
714.2857360839842
 30
0.0
 11
3483.900146484375
 21
714.2857360839842
 31
0.0
  0
LINE
  5
1BE
330
C5
100
AcDbEntity
  8
Rahmen (ISO)
100
AcDbLine
 10
20.0
 20
785.7142639160156
 30
0.0
 11
16.10000014305114
 21
785.7142639160156
 31
0.0
  0
LINE
  5
1BF
330
C5
100
AcDbEntity
  8
Rahmen (ISO)
100
AcDbLine
 10
3480.0
 20
785.7142639160156
 30
0.0
 11
3483.900146484375
 21
785.7142639160156
 31
0.0
  0
LINE
  5
1C0
330
C5
100
AcDbEntity
  8
Rahmen (ISO)
100
AcDbLine
 10
20.0
 20
857.1428680419922
 30
0.0
 11
16.10000014305114
 21
857.1428680419922
 31
0.0
  0
LINE
  5
1C1
330
C5
100
AcDbEntity
  8
Rahmen (ISO)
100
AcDbLine
 10
3480.0
 20
857.1428680419922
 30
0.0
 11
3483.900146484375
 21
857.1428680419922
 31
0.0
  0
LINE
  5
1C2
330
C5
100
AcDbEntity
  8
Rahmen (ISO)
100
AcDbLine
 10
20.0
 20
928.5713958740235
 30
0.0
 11
16.10000014305114
 21
928.5713958740235
 31
0.0
  0
LINE
  5
1C3
330
C5
100
AcDbEntity
  8
Rahmen (ISO)
100
AcDbLine
 10
3480.0
 20
928.5713958740235
 30
0.0
 11
3483.900146484375
 21
928.5713958740235
 31
0.0
  0
LINE
  5
1C4
330
C5
100
AcDbEntity
  8
Rahmen (ISO)
100
AcDbLine
 10
20.0
 20
1071.428604125976
 30
0.0
 11
16.10000014305114
 21
1071.428604125976
 31
0.0
  0
LINE
  5
1C5
330
C5
100
AcDbEntity
  8
Rahmen (ISO)
100
AcDbLine
 10
3480.0
 20
1071.428604125976
 30
0.0
 11
3483.900146484375
 21
1071.428604125976
 31
0.0
  0
LINE
  5
1C6
330
C5
100
AcDbEntity
  8
Rahmen (ISO)
100
AcDbLine
 10
20.0
 20
1142.857131958008
 30
0.0
 11
16.10000014305114
 21
1142.857131958008
 31
0.0
  0
LINE
  5
1C7
330
C5
100
AcDbEntity
  8
Rahmen (ISO)
100
AcDbLine
 10
3480.0
 20
1142.857131958008
 30
0.0
 11
3483.900146484375
 21
1142.857131958008
 31
0.0
  0
LINE
  5
1C8
330
C5
100
AcDbEntity
  8
Rahmen (ISO)
100
AcDbLine
 10
20.0
 20
1214.285736083984
 30
0.0
 11
16.10000014305114
 21
1214.285736083984
 31
0.0
  0
LINE
  5
1C9
330
C5
100
AcDbEntity
  8
Rahmen (ISO)
100
AcDbLine
 10
3480.0
 20
1214.285736083984
 30
0.0
 11
3483.900146484375
 21
1214.285736083984
 31
0.0
  0
LINE
  5
1CA
330
C5
100
AcDbEntity
  8
Rahmen (ISO)
100
AcDbLine
 10
20.0
 20
1285.714263916015
 30
0.0
 11
16.10000014305114
 21
1285.714263916015
 31
0.0
  0
LINE
  5
1CB
330
C5
100
AcDbEntity
  8
Rahmen (ISO)
100
AcDbLine
 10
3480.0
 20
1285.714263916015
 30
0.0
 11
3483.900146484375
 21
1285.714263916015
 31
0.0
  0
LINE
  5
1CC
330
C5
100
AcDbEntity
  8
Rahmen (ISO)
100
AcDbLine
 10
20.0
 20
1357.142791748047
 30
0.0
 11
16.10000014305114
 21
1357.142791748047
 31
0.0
  0
LINE
  5
1CD
330
C5
100
AcDbEntity
  8
Rahmen (ISO)
100
AcDbLine
 10
3480.0
 20
1357.142791748047
 30
0.0
 11
3483.900146484375
 21
1357.142791748047
 31
0.0
  0
LINE
  5
1CE
330
C5
100
AcDbEntity
  8
Rahmen (ISO)
100
AcDbLine
 10
20.0
 20
1428.571472167968
 30
0.0
 11
16.10000014305114
 21
1428.571472167968
 31
0.0
  0
LINE
  5
1CF
330
C5
100
AcDbEntity
  8
Rahmen (ISO)
100
AcDbLine
 10
3480.0
 20
1428.571472167968
 30
0.0
 11
3483.900146484375
 21
1428.571472167968
 31
0.0
  0
LINE
  5
1D0
330
C5
100
AcDbEntity
  8
Rahmen (ISO)
100
AcDbLine
 10
20.0
 20
1500.0
 30
0.0
 11
16.10000014305114
 21
1500.0
 31
0.0
  0
LINE
  5
1D1
330
C5
100
AcDbEntity
  8
Rahmen (ISO)
100
AcDbLine
 10
3480.0
 20
1500.0
 30
0.0
 11
3483.900146484375
 21
1500.0
 31
0.0
  0
LINE
  5
1D2
330
C5
100
AcDbEntity
  8
Rahmen (ISO)
100
AcDbLine
 10
20.0
 20
1571.428527832031
 30
0.0
 11
16.10000014305114
 21
1571.428527832031
 31
0.0
  0
LINE
  5
1D3
330
C5
100
AcDbEntity
  8
Rahmen (ISO)
100
AcDbLine
 10
3480.0
 20
1571.428527832031
 30
0.0
 11
3483.900146484375
 21
1571.428527832031
 31
0.0
  0
LINE
  5
1D4
330
C5
100
AcDbEntity
  8
Rahmen (ISO)
100
AcDbLine
 10
20.0
 20
1642.857208251953
 30
0.0
 11
16.10000014305114
 21
1642.857208251953
 31
0.0
  0
LINE
  5
1D5
330
C5
100
AcDbEntity
  8
Rahmen (ISO)
100
AcDbLine
 10
3480.0
 20
1642.857208251953
 30
0.0
 11
3483.900146484375
 21
1642.857208251953
 31
0.0
  0
LINE
  5
1D6
330
C5
100
AcDbEntity
  8
Rahmen (ISO)
100
AcDbLine
 10
20.0
 20
1714.285736083984
 30
0.0
 11
16.10000014305114
 21
1714.285736083984
 31
0.0
  0
LINE
  5
1D7
330
C5
100
AcDbEntity
  8
Rahmen (ISO)
100
AcDbLine
 10
3480.0
 20
1714.285736083984
 30
0.0
 11
3483.900146484375
 21
1714.285736083984
 31
0.0
  0
LINE
  5
1D8
330
C5
100
AcDbEntity
  8
Rahmen (ISO)
100
AcDbLine
 10
20.0
 20
1785.714263916015
 30
0.0
 11
16.10000014305114
 21
1785.714263916015
 31
0.0
  0
LINE
  5
1D9
330
C5
100
AcDbEntity
  8
Rahmen (ISO)
100
AcDbLine
 10
3480.0
 20
1785.714263916015
 30
0.0
 11
3483.900146484375
 21
1785.714263916015
 31
0.0
  0
LINE
  5
1DA
330
C5
100
AcDbEntity
  8
Rahmen (ISO)
100
AcDbLine
 10
20.0
 20
1857.142791748047
 30
0.0
 11
16.10000014305114
 21
1857.142791748047
 31
0.0
  0
LINE
  5
1DB
330
C5
100
AcDbEntity
  8
Rahmen (ISO)
100
AcDbLine
 10
3480.0
 20
1857.142791748047
 30
0.0
 11
3483.900146484375
 21
1857.142791748047
 31
0.0
  0
LINE
  5
1DC
330
C5
100
AcDbEntity
  8
Rahmen (ISO)
100
AcDbLine
 10
20.0
 20
1928.571472167969
 30
0.0
 11
16.10000014305114
 21
1928.571472167969
 31
0.0
  0
LINE
  5
1DD
330
C5
100
AcDbEntity
  8
Rahmen (ISO)
100
AcDbLine
 10
3480.0
 20
1928.571472167969
 30
0.0
 11
3483.900146484375
 21
1928.571472167969
 31
0.0
  0
MTEXT
  5
1DE
330
C5
100
AcDbEntity
  8
Rahmen (ISO)
100
AcDbMText
 10
16.80266848802566
 20
33.96428574408804
 30
0.0
 40
3.499999940395355
 41
0.0
 71
     7
 72
     1
  1
A
  7
Textstil7
 73
     1
 44
1.0
1001
ACAD
1000
MTEXTBEGIN
1070
    73
1070
     1
1070
    44
1040
1.0
1070
    74
1070
     0
1000
MTEXTEND
  0
MTEXT
  5
1DF
330
C5
100
AcDbEntity
  8
Rahmen (ISO)
100
AcDbMText
 10
3481.102668428422
 20
33.96428574408804
 30
0.0
 40
3.499999940395355
 41
0.0
 71
     7
 72
     1
  1
A
  7
Textstil7
 73
     1
 44
1.0
1001
ACAD
1000
MTEXTBEGIN
1070
    73
1070
     1
1070
    44
1040
1.0
1070
    74
1070
     0
1000
MTEXTEND
  0
MTEXT
  5
1E0
330
C5
100
AcDbEntity
  8
Rahmen (ISO)
100
AcDbMText
 10
16.97799316644668
 20
105.3928571726594
 30
0.0
 40
3.499999940395355
 41
0.0
 71
     7
 72
     1
  1
B
  7
Textstil7
 73
     1
 44
1.0
1001
ACAD
1000
MTEXTBEGIN
1070
    73
1070
     1
1070
    44
1040
1.0
1070
    74
1070
     0
1000
MTEXTEND
  0
MTEXT
  5
1E1
330
C5
100
AcDbEntity
  8
Rahmen (ISO)
100
AcDbMText
 10
3481.277993106842
 20
105.3928571726594
 30
0.0
 40
3.499999940395355
 41
0.0
 71
     7
 72
     1
  1
B
  7
Textstil7
 73
     1
 44
1.0
1001
ACAD
1000
MTEXTBEGIN
1070
    73
1070
     1
1070
    44
1040
1.0
1070
    74
1070
     0
1000
MTEXTEND
  0
MTEXT
  5
1E2
330
C5
100
AcDbEntity
  8
Rahmen (ISO)
100
AcDbMText
 10
17.15331784486771
 20
176.8214286012309
 30
0.0
 40
3.499999940395355
 41
0.0
 71
     7
 72
     1
  1
C
  7
Textstil7
 73
     1
 44
1.0
1001
ACAD
1000
MTEXTBEGIN
1070
    73
1070
     1
1070
    44
1040
1.0
1070
    74
1070
     0
1000
MTEXTEND
  0
MTEXT
  5
1E3
330
C5
100
AcDbEntity
  8
Rahmen (ISO)
100
AcDbMText
 10
3481.453317785263
 20
176.8214286012309
 30
0.0
 40
3.499999940395355
 41
0.0
 71
     7
 72
     1
  1
C
  7
Textstil7
 73
     1
 44
2.779408454895019
1001
ACAD
1000
MTEXTBEGIN
1070
    73
1070
     1
1070
    44
1040
2.779408454895019
1070
    74
1070
     0
1000
MTEXTEND
  0
MTEXT
  5
1E4
330
C5
100
AcDbEntity
  8
Rahmen (ISO)
100
AcDbMText
 10
16.97799316644668
 20
248.2500000298023
 30
0.0
 40
3.499999940395355
 41
0.0
 71
     7
 72
     1
  1
D
  7
Textstil7
 73
     1
 44
1.0
1001
ACAD
1000
MTEXTBEGIN
1070
    73
1070
     1
1070
    44
1040
1.0
1070
    74
1070
     0
1000
MTEXTEND
  0
MTEXT
  5
1E5
330
C5
100
AcDbEntity
  8
Rahmen (ISO)
100
AcDbMText
 10
3481.277993106842
 20
248.2500000298023
 30
0.0
 40
3.499999940395355
 41
0.0
 71
     7
 72
     1
  1
D
  7
Textstil7
 73
     1
 44
1.0
1001
ACAD
1000
MTEXTBEGIN
1070
    73
1070
     1
1070
    44
1040
1.0
1070
    74
1070
     0
1000
MTEXTEND
  0
MTEXT
  5
1E6
330
C5
100
AcDbEntity
  8
Rahmen (ISO)
100
AcDbMText
 10
17.15331784486771
 20
319.6785714583738
 30
0.0
 40
3.499999940395355
 41
0.0
 71
     7
 72
     1
  1
E
  7
Textstil7
 73
     1
 44
1.0
1001
ACAD
1000
MTEXTBEGIN
1070
    73
1070
     1
1070
    44
1040
1.0
1070
    74
1070
     0
1000
MTEXTEND
  0
MTEXT
  5
1E7
330
C5
100
AcDbEntity
  8
Rahmen (ISO)
100
AcDbMText
 10
3481.453317785263
 20
319.6785714583738
 30
0.0
 40
3.499999940395355
 41
0.0
 71
     7
 72
     1
  1
E
  7
Textstil7
 73
     1
 44
1.0
1001
ACAD
1000
MTEXTBEGIN
1070
    73
1070
     1
1070
    44
1040
1.0
1070
    74
1070
     0
1000
MTEXTEND
  0
MTEXT
  5
1E8
330
C5
100
AcDbEntity
  8
Rahmen (ISO)
100
AcDbMText
 10
17.15331784486771
 20
391.1071428869452
 30
0.0
 40
3.499999940395355
 41
0.0
 71
     7
 72
     1
  1
F
  7
Textstil7
 73
     1
 44
1.0
1001
ACAD
1000
MTEXTBEGIN
1070
    73
1070
     1
1070
    44
1040
1.0
1070
    74
1070
     0
1000
MTEXTEND
  0
MTEXT
  5
1E9
330
C5
100
AcDbEntity
  8
Rahmen (ISO)
100
AcDbMText
 10
3481.453317785263
 20
391.1071428869452
 30
0.0
 40
3.499999940395355
 41
0.0
 71
     7
 72
     1
  1
F
  7
Textstil7
 73
     1
 44
1.0
1001
ACAD
1000
MTEXTBEGIN
1070
    73
1070
     1
1070
    44
1040
1.0
1070
    74
1070
     0
1000
MTEXTEND
  0
MTEXT
  5
1EA
330
C5
100
AcDbEntity
  8
Rahmen (ISO)
100
AcDbMText
 10
16.97799316644668
 20
462.5357143155166
 30
0.0
 40
3.499999940395355
 41
0.0
 71
     7
 72
     1
  1
G
  7
Textstil7
 73
     1
 44
1.0
1001
ACAD
1000
MTEXTBEGIN
1070
    73
1070
     1
1070
    44
1040
1.0
1070
    74
1070
     0
1000
MTEXTEND
  0
MTEXT
  5
1EB
330
C5
100
AcDbEntity
  8
Rahmen (ISO)
100
AcDbMText
 10
3481.277993106842
 20
462.5357143155166
 30
0.0
 40
3.499999940395355
 41
0.0
 71
     7
 72
     1
  1
G
  7
Textstil7
 73
     1
 44
1.0
1001
ACAD
1000
MTEXTBEGIN
1070
    73
1070
     1
1070
    44
1040
1.0
1070
    74
1070
     0
1000
MTEXTEND
  0
MTEXT
  5
1EC
330
C5
100
AcDbEntity
  8
Rahmen (ISO)
100
AcDbMText
 10
16.97799316644668
 20
533.9642857440881
 30
0.0
 40
3.499999940395355
 41
0.0
 71
     7
 72
     1
  1
H
  7
Textstil7
 73
     1
 44
1.0
1001
ACAD
1000
MTEXTBEGIN
1070
    73
1070
     1
1070
    44
1040
1.0
1070
    74
1070
     0
1000
MTEXTEND
  0
MTEXT
  5
1ED
330
C5
100
AcDbEntity
  8
Rahmen (ISO)
100
AcDbMText
 10
3481.277993106842
 20
533.9642857440881
 30
0.0
 40
3.499999940395355
 41
0.0
 71
     7
 72
     1
  1
H
  7
Textstil7
 73
     1
 44
1.0
1001
ACAD
1000
MTEXTBEGIN
1070
    73
1070
     1
1070
    44
1040
1.0
1070
    74
1070
     0
1000
MTEXTEND
  0
MTEXT
  5
1EE
330
C5
100
AcDbEntity
  8
Rahmen (ISO)
100
AcDbMText
 10
17.85299315154552
 20
605.3928571726595
 30
0.0
 40
3.499999940395355
 41
0.0
 71
     7
 72
     1
  1
I
  7
Textstil7
 73
     1
 44
1.0
1001
ACAD
1000
MTEXTBEGIN
1070
    73
1070
     1
1070
    44
1040
1.0
1070
    74
1070
     0
1000
MTEXTEND
  0
MTEXT
  5
1EF
330
C5
100
AcDbEntity
  8
Rahmen (ISO)
100
AcDbMText
 10
3482.152993091941
 20
605.3928571726595
 30
0.0
 40
3.499999940395355
 41
0.0
 71
     7
 72
     1
  1
I
  7
Textstil7
 73
     1
 44
1.0
1001
ACAD
1000
MTEXTBEGIN
1070
    73
1070
     1
1070
    44
1040
1.0
1070
    74
1070
     0
1000
MTEXTEND
  0
MTEXT
  5
1F0
330
C5
100
AcDbEntity
  8
Rahmen (ISO)
100
AcDbMText
 10
17.32701911628246
 20
676.821428601231
 30
0.0
 40
3.499999940395355
 41
0.0
 71
     7
 72
     1
  1
J
  7
Textstil7
 73
     1
 44
1.0
1001
ACAD
1000
MTEXTBEGIN
1070
    73
1070
     1
1070
    44
1040
1.0
1070
    74
1070
     0
1000
MTEXTEND
  0
MTEXT
  5
1F1
330
C5
100
AcDbEntity
  8
Rahmen (ISO)
100
AcDbMText
 10
3481.627019056678
 20
676.821428601231
 30
0.0
 40
3.499999940395355
 41
0.0
 71
     7
 72
     1
  1
J
  7
Textstil7
 73
     1
 44
1.0
1001
ACAD
1000
MTEXTBEGIN
1070
    73
1070
     1
1070
    44
1040
1.0
1070
    74
1070
     0
1000
MTEXTEND
  0
MTEXT
  5
1F2
330
C5
100
AcDbEntity
  8
Rahmen (ISO)
100
AcDbMText
 10
16.97799316644668
 20
748.2500000298021
 30
0.0
 40
3.499999940395355
 41
0.0
 71
     7
 72
     1
  1
K
  7
Textstil7
 73
     1
 44
1.0
1001
ACAD
1000
MTEXTBEGIN
1070
    73
1070
     1
1070
    44
1040
1.0
1070
    74
1070
     0
1000
MTEXTEND
  0
MTEXT
  5
1F3
330
C5
100
AcDbEntity
  8
Rahmen (ISO)
100
AcDbMText
 10
3481.277993106842
 20
748.2500000298021
 30
0.0
 40
3.499999940395355
 41
0.0
 71
     7
 72
     1
  1
K
  7
Textstil7
 73
     1
 44
1.0
1001
ACAD
1000
MTEXTBEGIN
1070
    73
1070
     1
1070
    44
1040
1.0
1070
    74
1070
     0
1000
MTEXTEND
  0
MTEXT
  5
1F4
330
C5
100
AcDbEntity
  8
Rahmen (ISO)
100
AcDbMText
 10
17.15331784486771
 20
819.6785714583736
 30
0.0
 40
3.499999940395355
 41
0.0
 71
     7
 72
     1
  1
L
  7
Textstil7
 73
     1
 44
1.0
1001
ACAD
1000
MTEXTBEGIN
1070
    73
1070
     1
1070
    44
1040
1.0
1070
    74
1070
     0
1000
MTEXTEND
  0
MTEXT
  5
1F5
330
C5
100
AcDbEntity
  8
Rahmen (ISO)
100
AcDbMText
 10
3481.453317785263
 20
819.6785714583736
 30
0.0
 40
3.499999940395355
 41
0.0
 71
     7
 72
     1
  1
L
  7
Textstil7
 73
     1
 44
1.0
1001
ACAD
1000
MTEXTBEGIN
1070
    73
1070
     1
1070
    44
1040
1.0
1070
    74
1070
     0
1000
MTEXTEND
  0
MTEXT
  5
1F6
330
C5
100
AcDbEntity
  8
Rahmen (ISO)
100
AcDbMText
 10
16.80266848802566
 20
891.1071428869451
 30
0.0
 40
3.499999940395355
 41
0.0
 71
     7
 72
     1
  1
M
  7
Textstil7
 73
     1
 44
1.0
1001
ACAD
1000
MTEXTBEGIN
1070
    73
1070
     1
1070
    44
1040
1.0
1070
    74
1070
     0
1000
MTEXTEND
  0
MTEXT
  5
1F7
330
C5
100
AcDbEntity
  8
Rahmen (ISO)
100
AcDbMText
 10
3481.102668428422
 20
891.1071428869451
 30
0.0
 40
3.499999940395355
 41
0.0
 71
     7
 72
     1
  1
M
  7
Textstil7
 73
     1
 44
1.0
1001
ACAD
1000
MTEXTBEGIN
1070
    73
1070
     1
1070
    44
1040
1.0
1070
    74
1070
     0
1000
MTEXTEND
  0
MTEXT
  5
1F8
330
C5
100
AcDbEntity
  8
Rahmen (ISO)
100
AcDbMText
 10
16.97799316644668
 20
962.5357143155163
 30
0.0
 40
3.499999940395355
 41
0.0
 71
     7
 72
     1
  1
N
  7
Textstil7
 73
     1
 44
1.0
1001
ACAD
1000
MTEXTBEGIN
1070
    73
1070
     1
1070
    44
1040
1.0
1070
    74
1070
     0
1000
MTEXTEND
  0
MTEXT
  5
1F9
330
C5
100
AcDbEntity
  8
Rahmen (ISO)
100
AcDbMText
 10
3481.277993106842
 20
962.5357143155163
 30
0.0
 40
3.499999940395355
 41
0.0
 71
     7
 72
     1
  1
N
  7
Textstil7
 73
     1
 44
1.0
1001
ACAD
1000
MTEXTBEGIN
1070
    73
1070
     1
1070
    44
1040
1.0
1070
    74
1070
     0
1000
MTEXTEND
  0
MTEXT
  5
1FA
330
C5
100
AcDbEntity
  8
Rahmen (ISO)
100
AcDbMText
 10
16.97799316644668
 20
1033.964285744088
 30
0.0
 40
3.499999940395355
 41
0.0
 71
     7
 72
     1
  1
O
  7
Textstil7
 73
     1
 44
1.0
1001
ACAD
1000
MTEXTBEGIN
1070
    73
1070
     1
1070
    44
1040
1.0
1070
    74
1070
     0
1000
MTEXTEND
  0
MTEXT
  5
1FB
330
C5
100
AcDbEntity
  8
Rahmen (ISO)
100
AcDbMText
 10
3481.277993106842
 20
1033.964285744088
 30
0.0
 40
3.499999940395355
 41
0.0
 71
     7
 72
     1
  1
O
  7
Textstil7
 73
     1
 44
1.0
1001
ACAD
1000
MTEXTBEGIN
1070
    73
1070
     1
1070
    44
1040
1.0
1070
    74
1070
     0
1000
MTEXTEND
  0
MTEXT
  5
1FC
330
C5
100
AcDbEntity
  8
Rahmen (ISO)
100
AcDbMText
 10
16.97799316644668
 20
1105.392857172659
 30
0.0
 40
3.499999940395355
 41
0.0
 71
     7
 72
     1
  1
P
  7
Textstil7
 73
     1
 44
1.0
1001
ACAD
1000
MTEXTBEGIN
1070
    73
1070
     1
1070
    44
1040
1.0
1070
    74
1070
     0
1000
MTEXTEND
  0
MTEXT
  5
1FD
330
C5
100
AcDbEntity
  8
Rahmen (ISO)
100
AcDbMText
 10
3481.277993106842
 20
1105.392857172659
 30
0.0
 40
3.499999940395355
 41
0.0
 71
     7
 72
     1
  1
P
  7
Textstil7
 73
     1
 44
1.0
1001
ACAD
1000
MTEXTBEGIN
1070
    73
1070
     1
1070
    44
1040
1.0
1070
    74
1070
     0
1000
MTEXTEND
  0
MTEXT
  5
1FE
330
C5
100
AcDbEntity
  8
Rahmen (ISO)
100
AcDbMText
 10
16.97799316644668
 20
1176.821428601231
 30
0.0
 40
3.499999940395355
 41
0.0
 71
     7
 72
     1
  1
Q
  7
Textstil7
 73
     1
 44
1.0
1001
ACAD
1000
MTEXTBEGIN
1070
    73
1070
     1
1070
    44
1040
1.0
1070
    74
1070
     0
1000
MTEXTEND
  0
MTEXT
  5
1FF
330
C5
100
AcDbEntity
  8
Rahmen (ISO)
100
AcDbMText
 10
3481.277993106842
 20
1176.821428601231
 30
0.0
 40
3.499999940395355
 41
0.0
 71
     7
 72
     1
  1
Q
  7
Textstil7
 73
     1
 44
1.0
1001
ACAD
1000
MTEXTBEGIN
1070
    73
1070
     1
1070
    44
1040
1.0
1070
    74
1070
     0
1000
MTEXTEND
  0
MTEXT
  5
200
330
C5
100
AcDbEntity
  8
Rahmen (ISO)
100
AcDbMText
 10
16.97799316644668
 20
1248.250000029802
 30
0.0
 40
3.499999940395355
 41
0.0
 71
     7
 72
     1
  1
R
  7
Textstil7
 73
     1
 44
3.460477113723753
1001
ACAD
1000
MTEXTBEGIN
1070
    73
1070
     1
1070
    44
1040
3.460477113723753
1070
    74
1070
     0
1000
MTEXTEND
  0
MTEXT
  5
201
330
C5
100
AcDbEntity
  8
Rahmen (ISO)
100
AcDbMText
 10
3481.277993106842
 20
1248.250000029802
 30
0.0
 40
3.499999940395355
 41
0.0
 71
     7
 72
     1
  1
R
  7
Textstil7
 73
     1
 44
1.0
1001
ACAD
1000
MTEXTBEGIN
1070
    73
1070
     1
1070
    44
1040
1.0
1070
    74
1070
     0
1000
MTEXTEND
  0
MTEXT
  5
202
330
C5
100
AcDbEntity
  8
Rahmen (ISO)
100
AcDbMText
 10
16.97799316644668
 20
1319.678571458373
 30
0.0
 40
3.499999940395355
 41
0.0
 71
     7
 72
     1
  1
S
  7
Textstil7
 73
     1
 44
1.0
1001
ACAD
1000
MTEXTBEGIN
1070
    73
1070
     1
1070
    44
1040
1.0
1070
    74
1070
     0
1000
MTEXTEND
  0
MTEXT
  5
203
330
C5
100
AcDbEntity
  8
Rahmen (ISO)
100
AcDbMText
 10
3481.277993106842
 20
1319.678571458373
 30
0.0
 40
3.499999940395355
 41
0.0
 71
     7
 72
     1
  1
S
  7
Textstil7
 73
     1
 44
1.0
1001
ACAD
1000
MTEXTBEGIN
1070
    73
1070
     1
1070
    44
1040
1.0
1070
    74
1070
     0
1000
MTEXTEND
  0
MTEXT
  5
204
330
C5
100
AcDbEntity
  8
Rahmen (ISO)
100
AcDbMText
 10
16.97799316644668
 20
1391.107142886945
 30
0.0
 40
3.499999940395355
 41
0.0
 71
     7
 72
     1
  1
T
  7
Textstil7
 73
     1
 44
1.0
1001
ACAD
1000
MTEXTBEGIN
1070
    73
1070
     1
1070
    44
1040
1.0
1070
    74
1070
     0
1000
MTEXTEND
  0
MTEXT
  5
205
330
C5
100
AcDbEntity
  8
Rahmen (ISO)
100
AcDbMText
 10
3481.277993106842
 20
1391.107142886945
 30
0.0
 40
3.499999940395355
 41
0.0
 71
     7
 72
     1
  1
T
  7
Textstil7
 73
     1
 44
1.0
1001
ACAD
1000
MTEXTBEGIN
1070
    73
1070
     1
1070
    44
1040
1.0
1070
    74
1070
     0
1000
MTEXTEND
  0
MTEXT
  5
206
330
C5
100
AcDbEntity
  8
Rahmen (ISO)
100
AcDbMText
 10
16.97799316644668
 20
1462.535714315516
 30
0.0
 40
3.499999940395355
 41
0.0
 71
     7
 72
     1
  1
U
  7
Textstil7
 73
     1
 44
1.0
1001
ACAD
1000
MTEXTBEGIN
1070
    73
1070
     1
1070
    44
1040
1.0
1070
    74
1070
     0
1000
MTEXTEND
  0
MTEXT
  5
207
330
C5
100
AcDbEntity
  8
Rahmen (ISO)
100
AcDbMText
 10
3481.277993106842
 20
1462.535714315516
 30
0.0
 40
3.499999940395355
 41
0.0
 71
     7
 72
     1
  1
U
  7
Textstil7
 73
     1
 44
1.0
1001
ACAD
1000
MTEXTBEGIN
1070
    73
1070
     1
1070
    44
1040
1.0
1070
    74
1070
     0
1000
MTEXTEND
  0
MTEXT
  5
208
330
C5
100
AcDbEntity
  8
Rahmen (ISO)
100
AcDbMText
 10
16.80266848802566
 20
1533.964285744088
 30
0.0
 40
3.499999940395355
 41
0.0
 71
     7
 72
     1
  1
V
  7
Textstil7
 73
     1
 44
1.0
1001
ACAD
1000
MTEXTBEGIN
1070
    73
1070
     1
1070
    44
1040
1.0
1070
    74
1070
     0
1000
MTEXTEND
  0
MTEXT
  5
209
330
C5
100
AcDbEntity
  8
Rahmen (ISO)
100
AcDbMText
 10
3481.102668428422
 20
1533.964285744088
 30
0.0
 40
3.499999940395355
 41
0.0
 71
     7
 72
     1
  1
V
  7
Textstil7
 73
     1
 44
1.0
1001
ACAD
1000
MTEXTBEGIN
1070
    73
1070
     1
1070
    44
1040
1.0
1070
    74
1070
     0
1000
MTEXTEND
  0
MTEXT
  5
20A
330
C5
100
AcDbEntity
  8
Rahmen (ISO)
100
AcDbMText
 10
16.45364246368408
 20
1605.392857172659
 30
0.0
 40
3.499999940395355
 41
0.0
 71
     7
 72
     1
  1
W
  7
Textstil7
 73
     1
 44
1.0
1001
ACAD
1000
MTEXTBEGIN
1070
    73
1070
     1
1070
    44
1040
1.0
1070
    74
1070
     0
1000
MTEXTEND
  0
MTEXT
  5
20B
330
C5
100
AcDbEntity
  8
Rahmen (ISO)
100
AcDbMText
 10
3480.75364240408
 20
1605.392857172659
 30
0.0
 40
3.499999940395355
 41
0.0
 71
     7
 72
     1
  1
W
  7
Textstil7
 73
     1
 44
1.0
1001
ACAD
1000
MTEXTBEGIN
1070
    73
1070
     1
1070
    44
1040
1.0
1070
    74
1070
     0
1000
MTEXTEND
  0
MTEXT
  5
20C
330
C5
100
AcDbEntity
  8
Rahmen (ISO)
100
AcDbMText
 10
16.80266848802566
 20
1676.82142860123
 30
0.0
 40
3.499999940395355
 41
0.0
 71
     7
 72
     1
  1
X
  7
Textstil7
 73
     1
 44
1.0
1001
ACAD
1000
MTEXTBEGIN
1070
    73
1070
     1
1070
    44
1040
1.0
1070
    74
1070
     0
1000
MTEXTEND
  0
MTEXT
  5
20D
330
C5
100
AcDbEntity
  8
Rahmen (ISO)
100
AcDbMText
 10
3481.102668428422
 20
1676.82142860123
 30
0.0
 40
3.499999940395355
 41
0.0
 71
     7
 72
     1
  1
X
  7
Textstil7
 73
     1
 44
1.0
1001
ACAD
1000
MTEXTBEGIN
1070
    73
1070
     1
1070
    44
1040
1.0
1070
    74
1070
     0
1000
MTEXTEND
  0
MTEXT
  5
20E
330
C5
100
AcDbEntity
  8
Rahmen (ISO)
100
AcDbMText
 10
16.80266848802566
 20
1748.250000029802
 30
0.0
 40
3.499999940395355
 41
0.0
 71
     7
 72
     1
  1
Y
  7
Textstil7
 73
     1
 44
1.0
1001
ACAD
1000
MTEXTBEGIN
1070
    73
1070
     1
1070
    44
1040
1.0
1070
    74
1070
     0
1000
MTEXTEND
  0
MTEXT
  5
20F
330
C5
100
AcDbEntity
  8
Rahmen (ISO)
100
AcDbMText
 10
3481.102668428422
 20
1748.250000029802
 30
0.0
 40
3.499999940395355
 41
0.0
 71
     7
 72
     1
  1
Y
  7
Textstil7
 73
     1
 44
1.0
1001
ACAD
1000
MTEXTBEGIN
1070
    73
1070
     1
1070
    44
1040
1.0
1070
    74
1070
     0
1000
MTEXTEND
  0
MTEXT
  5
210
330
C5
100
AcDbEntity
  8
Rahmen (ISO)
100
AcDbMText
 10
16.97799316644668
 20
1819.678571458373
 30
0.0
 40
3.499999940395355
 41
0.0
 71
     7
 72
     1
  1
Z
  7
Textstil7
 73
     1
 44
1.0
1001
ACAD
1000
MTEXTBEGIN
1070
    73
1070
     1
1070
    44
1040
1.0
1070
    74
1070
     0
1000
MTEXTEND
  0
MTEXT
  5
211
330
C5
100
AcDbEntity
  8
Rahmen (ISO)
100
AcDbMText
 10
3481.277993106842
 20
1819.678571458373
 30
0.0
 40
3.499999940395355
 41
0.0
 71
     7
 72
     1
  1
Z
  7
Textstil7
 73
     1
 44
1.0
1001
ACAD
1000
MTEXTBEGIN
1070
    73
1070
     1
1070
    44
1040
1.0
1070
    74
1070
     0
1000
MTEXTEND
  0
MTEXT
  5
212
330
C5
100
AcDbEntity
  8
Rahmen (ISO)
100
AcDbMText
 10
13.47799322605133
 20
1891.107142886944
 30
0.0
 40
3.499999940395355
 41
0.0
 71
     7
 72
     1
  1
AA
  7
Textstil7
 73
     1
 44
1.0
1001
ACAD
1000
MTEXTBEGIN
1070
    73
1070
     1
1070
    44
1040
1.0
1070
    74
1070
     0
1000
MTEXTEND
  0
MTEXT
  5
213
330
C5
100
AcDbEntity
  8
Rahmen (ISO)
100
AcDbMText
 10
3479.527993136644
 20
1891.107142886944
 30
0.0
 40
3.499999940395355
 41
0.0
 71
     7
 72
     1
  1
AA
  7
Textstil7
 73
     1
 44
1.0
1001
ACAD
1000
MTEXTBEGIN
1070
    73
1070
     1
1070
    44
1040
1.0
1070
    74
1070
     0
1000
MTEXTEND
  0
MTEXT
  5
214
330
C5
100
AcDbEntity
  8
Rahmen (ISO)
100
AcDbMText
 10
13.82864258289337
 20
1962.535714315516
 30
0.0
 40
3.499999940395355
 41
0.0
 71
     7
 72
     1
  1
BB
  7
Textstil7
 73
     1
 44
1.0
1001
ACAD
1000
MTEXTBEGIN
1070
    73
1070
     1
1070
    44
1040
1.0
1070
    74
1070
     0
1000
MTEXTEND
  0
MTEXT
  5
215
330
C5
100
AcDbEntity
  8
Rahmen (ISO)
100
AcDbMText
 10
3479.878642493487
 20
1962.535714315516
 30
0.0
 40
3.499999940395355
 41
0.0
 71
     7
 72
     1
  1
BB
  7
Textstil7
 73
     1
 44
1.0
1001
ACAD
1000
MTEXTBEGIN
1070
    73
1070
     1
1070
    44
1040
1.0
1070
    74
1070
     0
1000
MTEXTEND
  0
ENDBLK
  5
C7
330
C5
100
AcDbEntity
  8
0
100
AcDbBlockEnd
  0
BLOCK
  5
218
330
217
100
AcDbEntity
  8
0
100
AcDbBlockBegin
  2
Schriftfelder großes schriftfeld
 70
     2
 10
0.0
 20
0.0
 30
0.0
  3
Schriftfelder großes schriftfeld
  1

  0
LINE
  5
21A
330
217
100
AcDbEntity
  8
Titel (ISO)
100
AcDbLine
 10
98.40092059607565
 20
99.828060382812
 30
0.0
 11
288.4009205960757
 21
99.82806038281204
 31
0.0
  0
LINE
  5
21B
330
217
100
AcDbEntity
  8
Titel (ISO)
100
AcDbLine
 10
288.4009205960757
 20
99.82806038281204
 30
0.0
 11
288.4009205960757
 21
155.078060382812
 31
0.0
  0
LINE
  5
21C
330
217
100
AcDbEntity
  8
Titel (ISO)
100
AcDbLine
 10
288.4009205960757
 20
155.078060382812
 30
0.0
 11
98.40092059607565
 21
155.078060382812
 31
0.0
  0
LINE
  5
21D
330
217
100
AcDbEntity
  8
Titel (ISO)
100
AcDbLine
 10
98.40092059607565
 20
155.078060382812
 30
0.0
 11
98.40092059607565
 21
99.828060382812
 31
0.0
  0
LINE
  5
21E
330
217
100
AcDbEntity
  8
Titel (ISO)
100
AcDbLine
 10
153.0009205960757
 20
99.828060382812
 30
0.0
 11
153.0009205960756
 21
155.078060382812
 31
0.0
  0
LINE
  5
21F
330
217
100
AcDbEntity
  8
Titel (ISO)
100
AcDbLine
 10
197.2009205960756
 20
99.828060382812
 30
0.0
 11
197.2009205960756
 21
155.078060382812
 31
0.0
  0
LINE
  5
220
330
217
100
AcDbEntity
  8
Titel (ISO)
100
AcDbLine
 10
98.40092059607565
 20
138.078060382812
 30
0.0
 11
288.4009205960757
 21
138.0780603828121
 31
0.0
  0
LINE
  5
221
330
217
100
AcDbEntity
  8
Titel (ISO)
100
AcDbLine
 10
153.0009205960757
 20
116.828060382812
 30
0.0
 11
288.4009205960757
 21
116.8280603828121
 31
0.0
  0
LINE
  5
222
330
217
100
AcDbEntity
  8
Titel (ISO)
100
AcDbLine
 10
197.2009205960756
 20
148.328060382812
 30
0.0
 11
288.4009205960757
 21
148.328060382812
 31
0.0
  0
LINE
  5
223
330
217
100
AcDbEntity
  8
Titel (ISO)
100
AcDbLine
 10
250.8
 20
148.328060382812
 30
0.0
 11
250.8
 21
155.078060382812
 31
0.0
  0
LINE
  5
224
330
217
100
AcDbEntity
  8
Titel (ISO)
100
AcDbLine
 10
98.4009205960757
 20
104.078060382812
 30
0.0
 11
153.0009205960757
 21
104.078060382812
 31
0.0
  0
LINE
  5
225
330
217
100
AcDbEntity
  8
Titel (ISO)
100
AcDbLine
 10
153.0009205960757
 20
104.078060382812
 30
0.0
 11
197.2009205960756
 21
104.078060382812
 31
0.0
  0
LINE
  5
226
330
217
100
AcDbEntity
  8
Titel (ISO)
100
AcDbLine
 10
197.2009205960756
 20
104.078060382812
 30
0.0
 11
288.4009205960757
 21
104.078060382812
 31
0.0
  0
LINE
  5
227
330
217
100
AcDbEntity
  8
Titel (ISO)
100
AcDbLine
 10
242.8009205960757
 20
99.828060382812
 30
0.0
 11
242.8009205960757
 21
104.078060382812
 31
0.0
  0
LINE
  5
228
330
217
100
AcDbEntity
  8
Titel (ISO)
100
AcDbLine
 10
272.6009205960756
 20
104.078060382812
 30
0.0
 11
272.6009205960756
 21
116.8280603828121
 31
0.0
  0
LINE
  5
229
330
217
100
AcDbEntity
  8
Titel (ISO)
100
AcDbLine
 10
272.6009205960756
 20
108.2190860238377
 30
0.0
 11
288.4009205960757
 21
108.2190860238377
 31
0.0
  0
LINE
  5
22A
330
217
100
AcDbEntity
  8
Titel (ISO)
100
AcDbLine
 10
153.0009205960757
 20
108.328060382812
 30
0.0
 11
98.40092059607565
 21
108.328060382812
 31
0.0
  0
LINE
  5
22B
330
217
100
AcDbEntity
  8
Titel (ISO)
100
AcDbLine
 10
98.40092059607565
 20
112.578060382812
 30
0.0
 11
153.0009205960757
 21
112.578060382812
 31
0.0
  0
LINE
  5
22C
330
217
100
AcDbEntity
  8
Titel (ISO)
100
AcDbLine
 10
98.40092059607565
 20
116.828060382812
 30
0.0
 11
153.0009205960757
 21
116.828060382812
 31
0.0
  0
LINE
  5
22D
330
217
100
AcDbEntity
  8
Titel (ISO)
100
AcDbLine
 10
98.40092059607565
 20
121.078060382812
 30
0.0
 11
153.0009205960757
 21
121.078060382812
 31
0.0
  0
LINE
  5
22E
330
217
100
AcDbEntity
  8
Titel (ISO)
100
AcDbLine
 10
153.0009205960757
 20
121.078060382812
 30
0.0
 11
197.2009205960756
 21
121.0780603828121
 31
0.0
  0
LINE
  5
22F
330
217
100
AcDbEntity
  8
Titel (ISO)
100
AcDbLine
 10
98.40092059607565
 20
125.328060382812
 30
0.0
 11
153.0009205960757
 21
125.3280603828121
 31
0.0
  0
LINE
  5
230
330
217
100
AcDbEntity
  8
Titel (ISO)
100
AcDbLine
 10
153.0009205960757
 20
125.3280603828121
 30
0.0
 11
197.2009205960756
 21
125.3280603828121
 31
0.0
  0
LINE
  5
231
330
217
100
AcDbEntity
  8
Titel (ISO)
100
AcDbLine
 10
98.40092059607565
 20
129.578060382812
 30
0.0
 11
153.0009205960757
 21
129.578060382812
 31
0.0
  0
LINE
  5
232
330
217
100
AcDbEntity
  8
Titel (ISO)
100
AcDbLine
 10
153.0009205960757
 20
129.578060382812
 30
0.0
 11
197.2009205960756
 21
129.578060382812
 31
0.0
  0
LINE
  5
233
330
217
100
AcDbEntity
  8
Titel (ISO)
100
AcDbLine
 10
98.40092059607565
 20
133.828060382812
 30
0.0
 11
153.0009205960757
 21
133.828060382812
 31
0.0
  0
LINE
  5
234
330
217
100
AcDbEntity
  8
Titel (ISO)
100
AcDbLine
 10
153.0009205960757
 20
133.828060382812
 30
0.0
 11
197.2009205960756
 21
133.828060382812
 31
0.0
  0
LINE
  5
235
330
217
100
AcDbEntity
  8
Titel (ISO)
100
AcDbLine
 10
106.2009205960756
 20
99.828060382812
 30
0.0
 11
106.2009205960756
 21
138.078060382812
 31
0.0
  0
LINE
  5
236
330
217
100
AcDbEntity
  8
Titel (ISO)
100
AcDbLine
 10
132.2009205960756
 20
99.828060382812
 30
0.0
 11
132.2009205960756
 21
138.078060382812
 31
0.0
  0
LINE
  5
237
330
217
100
AcDbEntity
  8
Titel (ISO)
100
AcDbLine
 10
145.2009205960756
 20
99.828060382812
 30
0.0
 11
145.2009205960756
 21
138.078060382812
 31
0.0
  0
LINE
  5
238
330
217
100
AcDbEntity
  8
Titel (ISO)
100
AcDbLine
 10
163.4009205960756
 20
121.0780603828121
 30
0.0
 11
163.4009205960756
 21
138.0780603828121
 31
0.0
  0
LINE
  5
239
330
217
100
AcDbEntity
  8
Titel (ISO)
100
AcDbLine
 10
179.0009205960756
 20
116.828060382812
 30
0.0
 11
179.0009205960756
 21
138.0780603828121
 31
0.0
  0
LINE
  5
23A
330
217
100
AcDbEntity
  8
Titel (ISO)
100
AcDbLine
 10
288.4009205960757
 20
127.453060382812
 30
0.0
 11
197.2009205960756
 21
127.453060382812
 31
0.0
  0
LINE
  5
23B
330
217
100
AcDbEntity
  8
Titel (ISO)
100
AcDbLine
 10
197.2009205960756
 20
148.328060382812
 30
0.0
 11
98.40092059607565
 21
148.328060382812
 31
0.0
  0
TEXT
  5
23C
330
217
100
AcDbEntity
  8
Titel (ISO)
100
AcDbText
 10
99.22592047388619
 20
101.2030603530096
 30
0.0
 40
1.500000059604644
  1
Status
  7
Notiztext (DIN)
 72
     1
 11
102.3009205960757
 21
101.953060382812
 31
0.0
100
AcDbText
 73
     2
  0
TEXT
  5
23D
330
217
100
AcDbEntity
  8
Titel (ISO)
100
AcDbText
 10
113.8759203844791
 20
101.2030603530096
 30
0.0
 40
1.500000059604644
  1
Änderungen
  7
Notiztext (DIN)
 72
     1
 11
119.2009205960756
 21
101.953060382812
 31
0.0
100
AcDbText
 73
     2
  0
TEXT
  5
23E
330
217
100
AcDbEntity
  8
Titel (ISO)
100
AcDbText
 10
135.9259204858071
 20
101.2030603530096
 30
0.0
 40
1.500000059604644
  1
Datum
  7
Notiztext (DIN)
 72
     1
 11
138.7009205960757
 21
101.953060382812
 31
0.0
100
AcDbText
 73
     2
  0
TEXT
  5
23F
330
217
100
AcDbEntity
  8
Titel (ISO)
100
AcDbText
 10
146.7759205036885
 20
101.2030603530096
 30
0.0
 40
1.500000059604644
  1
Name
  7
Notiztext (DIN)
 72
     1
 11
149.1009205960757
 21
101.953060382812
 31
0.0
100
AcDbText
 73
     2
  0
TEXT
  5
240
330
217
100
AcDbEntity
  8
Titel (ISO)
100
AcDbText
 10
154.0009205960757
 20
130.8178331196124
 30
0.0
 40
1.500000059604644
  1
Gezeichnet
  7
Notiztext (DIN)
 11
154.0009205960757
 21
130.578060382812
 31
0.0
100
AcDbText
 73
     1
  0
TEXT
  5
241
330
217
100
AcDbEntity
  8
Titel (ISO)
100
AcDbText
 10
154.0009205960757
 20
126.5678331196124
 30
0.0
 40
1.500000059604644
  1
Kontrolliert
  7
Notiztext (DIN)
 11
154.0009205960757
 21
126.328060382812
 31
0.0
100
AcDbText
 73
     1
  0
TEXT
  5
242
330
217
100
AcDbEntity
  8
Titel (ISO)
100
AcDbText
 10
154.0009205960757
 20
122.3178331196125
 30
0.0
 40
1.500000059604644
  1
Norm
  7
Notiztext (DIN)
 11
154.0009205960757
 21
122.0780603828121
 31
0.0
100
AcDbText
 73
     1
  0
TEXT
  5
243
330
217
100
AcDbEntity
  8
Titel (ISO)
100
AcDbText
 10
167.5009205409413
 20
135.1477573572728
 30
0.0
 40
2.000000029802321
  1
Datum
  7
Notiztext (DIN)
 72
     1
 11
171.2009205960756
 21
134.828060382812
 31
0.0
100
AcDbText
 73
     1
  0
TEXT
  5
244
330
217
100
AcDbEntity
  8
Titel (ISO)
100
AcDbText
 10
185.0009205498819
 20
135.1477573572728
 30
0.0
 40
2.000000029802321
  1
Name
  7
Notiztext (DIN)
 72
     1
 11
188.1009205960756
 21
134.828060382812
 31
0.0
100
AcDbText
 73
     1
  0
MTEXT
  5
245
330
217
100
AcDbEntity
  8
Titel (ISO)
100
AcDbMText
 10
198.8093851227821
 20
153.3314456164458
 30
0.0
 40
3.499999940395355
 41
0.0
 71
     1
 72
     1
  1
Material:\fISOCPEUR|b0|i0;
  7
Notiztext (DIN)
 73
     1
 44
1.0
1001
ACAD
1000
MTEXTBEGIN
1070
    73
1070
     1
1070
    44
1040
1.0
1070
    74
1070
     0
1000
MTEXTEND
  0
MTEXT
  5
246
330
217
100
AcDbEntity
  8
Titel (ISO)
100
AcDbMText
 10
251.5987992657429
 20
153.6695220851552
 30
0.0
 40
3.499999940395355
 41
0.0
 71
     1
 72
     1
  1
MID:300
  7
Notiztext (DIN)
 73
     1
 44
1.0
1001
ACAD
1000
MTEXTBEGIN
1070
    73
1070
     1
1070
    44
1040
1.0
1070
    74
1070
     0
1000
MTEXTEND
  0
MTEXT
  5
247
330
217
100
AcDbEntity
  8
Titel (ISO)
100
AcDbMText
 10
198.8270526432173
 20
124.5913615735509
 30
0.0
 40
5.0
 41
0.0
 71
     1
 72
     1
  1
\fISOCPEUR|b0|i0;\H5.0000;Projekt:CAD extern
  7
Notiztext (DIN)
 73
     1
 44
1.0
1001
ACAD
1000
MTEXTBEGIN
1070
    73
1070
     1
1070
    44
1040
1.0
1070
    74
1070
     0
1000
MTEXTEND
  0
MTEXT
  5
248
330
217
100
AcDbEntity
  8
Titel (ISO)
100
AcDbMText
 10
198.6643560619287
 20
145.9477472659337
 30
0.0
 40
5.0
 41
0.0
 71
     1
 72
     1
  1
\fISOCPEUR|b0|i0;\H5.0000;Kunde:
  7
Notiztext (DIN)
 73
     1
 44
1.0
1001
ACAD
1000
MTEXTBEGIN
1070
    73
1070
     1
1070
    44
1040
1.0
1070
    74
1070
     0
1000
MTEXTEND
  0
MTEXT
  5
249
330
217
100
AcDbEntity
  8
Titel (ISO)
100
AcDbMText
 10
154.4670869667617
 20
153.338419462863
 30
0.0
 40
3.499999940395355
 41
0.0
 71
     1
 72
     1
  1
ANr.:\fISOCPEUR|b0|i0;
  7
Notiztext (DIN)
 73
     1
 44
1.0
1001
ACAD
1000
MTEXTBEGIN
1070
    73
1070
     1
1070
    44
1040
1.0
1070
    74
1070
     0
1000
MTEXTEND
  0
MTEXT
  5
24A
330
217
100
AcDbEntity
  8
Titel (ISO)
100
AcDbMText
 10
154.1572374429555
 20
144.9594922544821
 30
0.0
 40
3.499999940395355
 41
0.0
 71
     1
 72
     1
  1
KNr.:\fISOCPEUR|b0|i0;
  7
Notiztext (DIN)
 73
     1
 44
1.0
1001
ACAD
1000
MTEXTBEGIN
1070
    73
1070
     1
1070
    44
1040
1.0
1070
    74
1070
     0
1000
MTEXTEND
  0
MTEXT
  5
24B
330
217
100
AcDbEntity
  8
Titel (ISO)
100
AcDbMText
 10
99.69756531777807
 20
147.1456483097969
 30
0.0
 40
3.499999940395355
 41
0.0
 71
     1
 72
     1
  1
Lieferant:\fISOCPEUR|b0|i0;Zangenberg
  7
Notiztext (DIN)
 73
     1
 44
1.0
1001
ACAD
1000
MTEXTBEGIN
1070
    73
1070
     1
1070
    44
1040
1.0
1070
    74
1070
     0
1000
MTEXTEND
  0
MTEXT
  5
24C
102
{ACAD_XDICTIONARY
360
3F2
102
}
330
217
100
AcDbEntity
  8
Titel (ISO)
100
AcDbMText
 10
99.50017649982241
 20
153.3971258610357
 30
0.0
 40
3.499999940395355
 41
0.0
 71
     1
 72
     1
  1
Ma\U+00DFstab:1:1
  7
Notiztext (DIN)
 73
     1
 44
1.0
1001
ACAD
1000
MTEXTBEGIN
1070
    73
1070
     1
1070
    44
1040
1.0
1070
    74
1070
     0
1000
MTEXTEND
  0
MTEXT
  5
24D
330
217
100
AcDbEntity
  8
Titel (ISO)
100
AcDbMText
 10
154.5665241725813
 20
115.7812574216837
 30
0.0
 40
4.000000059604643
 41
41.23190879821779
 71
     1
 72
     1
  1
\fISOCPEUR|b0|i0;\H4.0000;Axel Zangenberg\PGmbH & Co. KG
  7
Notiztext (DIN)
 73
     2
 44
1.068348169326782
1001
ACAD
1000
MTEXTBEGIN
1070
    73
1070
     2
1070
    44
1040
1.068348169326782
1070
    74
1070
     0
1000
MTEXTEND
  0
MTEXT
  5
24E
330
217
100
AcDbEntity
  8
Titel (ISO)
100
AcDbMText
 10
99.8372589388262
 20
142.7355508339425
 30
0.0
 40
3.499999940395355
 41
0.0
 71
     1
 72
     1
  1
Liefertermin:
  7
Notiztext (DIN)
 73
     1
 44
1.0
1001
ACAD
1000
MTEXTBEGIN
1070
    73
1070
     1
1070
    44
1040
1.0
1070
    74
1070
     0
1000
MTEXTEND
  0
ATTDEF
  5
24F
330
217
100
AcDbEntity
  8
Titel (ISO)
100
AcDbText
 10
277.7509205960758
 20
110.0235732033248
 30
0.0
 40
5.0
  1
1 
  7
Notiztext (DIN)
 72
     1
 11
280.5009205960757
 21
112.5235732033248
 31
0.0
100
AcDbAttributeDefinition
  3
Blattnummer
  2
Blattnummer
 70
     0
 74
     2
  0
ATTDEF
  5
250
330
217
100
AcDbEntity
  8
Titel (ISO)
100
AcDbText
 10
257.0009205960757
 20
104.8985732033249
 30
0.0
 40
2.5
  1
Benutzerdefinierte Größe (mm)
  7
Notiztext (DIN)
 72
     1
 11
280.5009205960757
 21
106.1485732033249
 31
0.0
100
AcDbAttributeDefinition
  3
Blattgröße
  2
Blattgröße
 70
     0
 74
     2
  0
ATTDEF
  5
251
330
217
100
AcDbEntity
  8
Titel (ISO)
100
AcDbText
 10
198.2009205960756
 20
129.7602929821155
 30
0.0
 40
5.0
  1
Minimale-Länge
  7
Notiztext (DIN)
 11
198.2009205960756
 21
132.2602929821155
 31
0.0
100
AcDbAttributeDefinition
  3
TITEL
  2
TITEL
 70
     0
 74
     2
  0
ATTDEF
  5
252
330
217
100
AcDbEntity
  8
Titel (ISO)
100
AcDbText
 10
198.2009205960756
 20
107.953060382812
 30
0.0
 40
5.0
  1
Alligator300 KL-Flansch 
  7
Notiztext (DIN)
 11
198.2009205960756
 21
110.453060382812
 31
0.0
100
AcDbAttributeDefinition
  3
BAUTEILNUMMER
  2
BAUTEILNUMMER
 70
     0
 74
     2
  0
ATTDEF
  5
253
330
217
100
AcDbEntity
  8
Titel (ISO)
100
AcDbText
 10
164.4009205960756
 20
130.8977573572728
 30
0.0
 40
2.000000029802321
  1
19.12.2006
  7
Notiztext (DIN)
 11
164.4009205960756
 21
130.578060382812
 31
0.0
100
AcDbAttributeDefinition
  3
ERSTELLUNGSDATUM
  2
ERSTELLUNGSDATUM
 70
     0
 74
     1
  0
ATTDEF
  5
254
330
217
100
AcDbEntity
  8
Titel (ISO)
100
AcDbText
 10
164.4009205960756
 20
126.6477573572728
 30
0.0
 40
2.000000029802321
  1

  7
Notiztext (DIN)
 11
164.4009205960756
 21
126.328060382812
 31
0.0
100
AcDbAttributeDefinition
  3
KONTROLLDATUM
  2
KONTROLLDATUM
 70
     0
 74
     1
  0
ATTDEF
  5
255
330
217
100
AcDbEntity
  8
Titel (ISO)
100
AcDbText
 10
164.4009205960756
 20
122.3977573572729
 30
0.0
 40
2.000000029802321
  1

  7
Notiztext (DIN)
 11
164.4009205960756
 21
122.0780603828121
 31
0.0
100
AcDbAttributeDefinition
  3
GENEHM.DAT. KONSTR.
  2
GENEHM.DAT._KONSTR.
 70
     0
 74
     1
  0
ATTDEF
  5
256
330
217
100
AcDbEntity
  8
Titel (ISO)
100
AcDbText
 10
180.0009205960756
 20
130.8977573572729
 30
0.0
 40
2.000000029802321
  1
Reinhardt
  7
Notiztext (DIN)
 11
180.0009205960756
 21
130.5780603828121
 31
0.0
100
AcDbAttributeDefinition
  3
AUTOR
  2
AUTOR
 70
     0
 74
     1
  0
ATTDEF
  5
257
330
217
100
AcDbEntity
  8
Titel (ISO)
100
AcDbText
 10
180.0009205960756
 20
122.3977573572728
 30
0.0
 40
2.000000029802321
  1

  7
Notiztext (DIN)
 11
180.0009205960756
 21
122.078060382812
 31
0.0
100
AcDbAttributeDefinition
  3
KONSTR. GEN. VON
  2
KONSTR._GEN._VON
 70
     0
 74
     1
  0
ATTDEF
  5
258
330
217
100
AcDbEntity
  8
Titel (ISO)
100
AcDbText
 10
180.0009205960756
 20
126.6477573572728
 30
0.0
 40
2.000000029802321
  1

  7
Notiztext (DIN)
 11
180.0009205960756
 21
126.328060382812
 31
0.0
100
AcDbAttributeDefinition
  3
KONTROLLIERT VON
  2
KONTROLLIERT_VON
 70
     0
 74
     1
  0
ENDBLK
  5
219
330
217
100
AcDbEntity
  8
0
100
AcDbBlockEnd
  0
ENDSEC
  0
SECTION
  2
ENTITIES
  0
INSERT
  5
216
330
37
100
AcDbEntity
  8
0
100
AcDbBlockReference
  2
Ränder Default Border
 10
0.0
 20
0.0
 30
0.0
  0
INSERT
  5
259
330
37
100
AcDbEntity
  8
0
100
AcDbBlockReference
 66
     1
  2
Schriftfelder großes schriftfeld
 10
3191.599079403925
 20
-79.828060382812
 30
0.0
  0
ATTRIB
  5
25B
330
259
100
AcDbEntity
  8
Titel (ISO)
100
AcDbText
 10
3469.35
 20
30.19551282051287
 30
0.0
 40
5.0
  1
1 
  7
Notiztext (DIN)
 72
     1
 11
3472.1
 21
32.69551282051287
 31
0.0
100
AcDbAttribute
  2
Blattnummer
 70
     0
 74
     2
  0
ATTRIB
  5
25C
330
259
100
AcDbEntity
  8
Titel (ISO)
100
AcDbText
 10
3448.6
 20
25.07051282051288
 30
0.0
 40
2.5
  1
Benutzerdefinierte Größe (mm)
  7
Notiztext (DIN)
 72
     1
 11
3472.1
 21
26.32051282051288
 31
0.0
100
AcDbAttribute
  2
Blattgröße
 70
     0
 74
     2
  0
ATTRIB
  5
25D
330
259
100
AcDbEntity
  8
Titel (ISO)
100
AcDbText
 10
3389.800000000001
 20
49.93223259930353
 30
0.0
 40
5.0
  1
Minimale-Länge
  7
Notiztext (DIN)
 11
3389.800000000001
 21
52.43223259930353
 31
0.0
100
AcDbAttribute
  2
TITEL
 70
     0
 74
     2
  0
ATTRIB
  5
25E
330
259
100
AcDbEntity
  8
Titel (ISO)
100
AcDbText
 10
3389.800000000001
 20
28.12500000000005
 30
0.0
 40
5.0
  1
Alligator300 KL-Flansch 
  7
Notiztext (DIN)
 11
3389.800000000001
 21
30.62500000000005
 31
0.0
100
AcDbAttribute
  2
BAUTEILNUMMER
 70
     0
 74
     2
  0
ATTRIB
  5
25F
330
259
100
AcDbEntity
  8
Titel (ISO)
100
AcDbText
 10
3356.0
 20
51.06969697446089
 30
0.0
 40
2.000000029802321
  1
19.12.2006
  7
Notiztext (DIN)
 11
3356.0
 21
50.75000000000006
 31
0.0
100
AcDbAttribute
  2
ERSTELLUNGSDATUM
 70
     0
 74
     1
  0
ATTRIB
  5
260
330
259
100
AcDbEntity
  8
Titel (ISO)
100
AcDbText
 10
3356.0
 20
46.81969697446088
 30
0.0
 40
2.000000029802321
  1

  7
Notiztext (DIN)
 11
3356.0
 21
46.50000000000004
 31
0.0
100
AcDbAttribute
  2
KONTROLLDATUM
 70
     0
 74
     1
  0
ATTRIB
  5
261
330
259
100
AcDbEntity
  8
Titel (ISO)
100
AcDbText
 10
3356.0
 20
42.56969697446089
 30
0.0
 40
2.000000029802321
  1

  7
Notiztext (DIN)
 11
3356.0
 21
42.25000000000007
 31
0.0
100
AcDbAttribute
  2
GENEHM.DAT._KONSTR.
 70
     0
 74
     1
  0
ATTRIB
  5
262
330
259
100
AcDbEntity
  8
Titel (ISO)
100
AcDbText
 10
3371.599999999999
 20
51.06969697446092
 30
0.0
 40
2.000000029802321
  1
Reinhardt
  7
Notiztext (DIN)
 11
3371.599999999999
 21
50.75000000000009
 31
0.0
100
AcDbAttribute
  2
AUTOR
 70
     0
 74
     1
  0
ATTRIB
  5
263
330
259
100
AcDbEntity
  8
Titel (ISO)
100
AcDbText
 10
3371.599999999999
 20
42.56969697446086
 30
0.0
 40
2.000000029802321
  1

  7
Notiztext (DIN)
 11
3371.599999999999
 21
42.25000000000004
 31
0.0
100
AcDbAttribute
  2
KONSTR._GEN._VON
 70
     0
 74
     1
  0
ATTRIB
  5
264
330
259
100
AcDbEntity
  8
Titel (ISO)
100
AcDbText
 10
3371.599999999999
 20
46.81969697446088
 30
0.0
 40
2.000000029802321
  1

  7
Notiztext (DIN)
 11
3371.599999999999
 21
46.50000000000004
 31
0.0
100
AcDbAttribute
  2
KONTROLLIERT_VON
 70
     0
 74
     1
  0
SEQEND
  5
25A
330
259
100
AcDbEntity
  8
0
  0
LINE
  5
265
330
37
100
AcDbEntity
  8
Sichtbar (ISO)
100
AcDbLine
 10
979.9840904829567
 20
1598.558617258178
 30
0.0
 11
949.984090482957
 21
1598.558617258178
 31
0.0
  0
LINE
  5
266
330
37
100
AcDbEntity
  8
Sichtbar (ISO)
100
AcDbLine
 10
979.9840904829567
 20
1821.058617258178
 30
0.0
 11
979.9840904829567
 21
1598.558617258178
 31
0.0
  0
LINE
  5
267
330
37
100
AcDbEntity
  8
Sichtbar (ISO)
100
AcDbLine
 10
979.9840904829567
 20
1821.058617258178
 30
0.0
 11
1019.984090482957
 21
1821.058617258178
 31
0.0
  0
LINE
  5
268
330
37
100
AcDbEntity
  8
Sichtbar (ISO)
100
AcDbLine
 10
949.984090482957
 20
1376.058617258178
 30
0.0
 11
949.984090482957
 21
1598.558617258178
 31
0.0
  0
LINE
  5
269
330
37
100
AcDbEntity
  8
Sichtbar (ISO)
100
AcDbLine
 10
1019.984090482957
 20
1376.058617258178
 30
0.0
 11
1019.984090482957
 21
1516.59331048373
 31
0.0
  0
LINE
  5
26A
330
37
100
AcDbEntity
  8
Sichtbar (ISO)
100
AcDbLine
 10
1139.984090482957
 20
1821.058617258178
 30
0.0
 11
1209.984090482957
 21
1821.058617258178
 31
0.0
  0
LINE
  5
26B
330
37
100
AcDbEntity
  8
Sichtbar (ISO)
100
AcDbLine
 10
1019.984090482957
 20
1721.058617258178
 30
0.0
 11
1019.984090482957
 21
1821.058617258178
 31
0.0
  0
LINE
  5
26C
330
37
100
AcDbEntity
  8
Sichtbar (ISO)
100
AcDbLine
 10
1019.984090482957
 20
1313.626990026994
 30
0.0
 11
1019.984090482957
 21
1222.324690563193
 31
0.0
  0
LINE
  5
26D
330
37
100
AcDbEntity
  8
Sichtbar (ISO)
100
AcDbLine
 10
1019.984090482957
 20
1215.210459721509
 30
0.0
 11
1019.984090482957
 21
1162.497052548452
 31
0.0
  0
LINE
  5
26E
330
37
100
AcDbEntity
  8
Sichtbar (ISO)
100
AcDbLine
 10
1019.984090482957
 20
1159.893063332009
 30
0.0
 11
1019.984090482957
 21
1153.558617258178
 31
0.0
  0
LINE
  5
26F
330
37
100
AcDbEntity
  8
Sichtbar (ISO)
100
AcDbLine
 10
1019.984090482957
 20
1376.058617258178
 30
0.0
 11
1019.984090482957
 21
1323.345210085121
 31
0.0
  0
LINE
  5
270
330
37
100
AcDbEntity
  8
Sichtbar (ISO)
100
AcDbLine
 10
949.984090482957
 20
1376.058617258178
 30
0.0
 11
949.984090482957
 21
1153.558617258178
 31
0.0
  0
LINE
  5
271
330
37
100
AcDbEntity
  8
Sichtbar (ISO)
100
AcDbLine
 10
949.9840904829566
 20
1153.558617258178
 30
0.0
 11
1019.984090482957
 21
1153.558617258178
 31
0.0
  0
LINE
  5
272
330
37
100
AcDbEntity
  8
Sichtbar (ISO)
100
AcDbLine
 10
1019.984090482957
 20
1516.59331048373
 30
0.0
 11
1095.984090482957
 21
1516.59331048373
 31
0.0
  0
LINE
  5
273
330
37
100
AcDbEntity
  8
Sichtbar (ISO)
100
AcDbLine
 10
1209.984090482957
 20
1714.047102546582
 30
0.0
 11
1209.984090482957
 21
1821.058617258178
 31
0.0
  0
LINE
  5
274
330
37
100
AcDbEntity
  8
Sichtbar (ISO)
100
AcDbLine
 10
1209.984090482957
 20
1714.047102546582
 30
0.0
 11
1095.984090482957
 21
1516.59331048373
 31
0.0
  0
LINE
  5
275
330
37
100
AcDbEntity
  8
Sichtbar (ISO)
100
AcDbLine
 10
1134.984090482957
 20
1816.058617258178
 30
0.0
 11
1139.984090482957
 21
1821.058617258178
 31
0.0
  0
LINE
  5
276
330
37
100
AcDbEntity
  8
Sichtbar (ISO)
100
AcDbLine
 10
1134.984090482957
 20
1816.058617258178
 30
0.0
 11
1134.984090482957
 21
1771.058617258178
 31
0.0
  0
LINE
  5
277
330
37
100
AcDbEntity
  8
Sichtbar (ISO)
100
AcDbLine
 10
1084.984090482957
 20
1721.058617258178
 30
0.0
 11
1019.984090482957
 21
1721.058617258178
 31
0.0
  0
ARC
  5
278
330
37
100
AcDbEntity
  8
Sichtbar (ISO)
100
AcDbCircle
 10
1084.984090482957
 20
1771.058617258178
 30
0.0
 40
50.0
100
AcDbArc
 50
270.0
 51
0.0
  0
LINE
  5
279
330
37
100
AcDbEntity
  8
Sichtbar (ISO)
100
AcDbLine
 10
1019.984090482957
 20
1323.345210085121
 30
0.0
 11
1019.984090482957
 21
1313.626990026994
 31
0.0
  0
LINE
  5
27A
330
37
100
AcDbEntity
  8
Sichtbar (ISO)
100
AcDbLine
 10
1019.984090482957
 20
1222.324690563193
 30
0.0
 11
1019.984090482957
 21
1215.210459721509
 31
0.0
  0
LINE
  5
27B
330
37
100
AcDbEntity
  8
Sichtbar (ISO)
100
AcDbLine
 10
1019.984090482957
 20
1162.497052548452
 30
0.0
 11
1019.984090482957
 21
1159.893063332009
 31
0.0
  0
LINE
  5
27C
330
37
100
AcDbEntity
  8
Sichtbar (ISO)
100
AcDbLine
 10
1074.984090482957
 20
1476.058617258178
 30
0.0
 11
1034.984090482957
 21
1476.058617258178
 31
0.0
  0
LINE
  5
27D
330
37
100
AcDbEntity
  8
Sichtbar (ISO)
100
AcDbLine
 10
1034.984090482957
 20
1721.058617258178
 30
0.0
 11
1034.984090482957
 21
1771.058617258178
 31
0.0
  0
LINE
  5
27E
330
37
100
AcDbEntity
  8
Sichtbar (ISO)
100
AcDbLine
 10
1074.984090482957
 20
1722.068822402515
 30
0.0
 11
1074.984090482957
 21
1721.058617258178
 31
0.0
  0
LINE
  5
27F
330
37
100
AcDbEntity
  8
Sichtbar (ISO)
100
AcDbLine
 10
1034.984090482957
 20
1462.552836718209
 30
0.0
 11
1034.984090482957
 21
1476.058617258178
 31
0.0
  0
LINE
  5
280
330
37
100
AcDbEntity
  8
Sichtbar (ISO)
100
AcDbLine
 10
1074.984090482957
 20
1462.552836718209
 30
0.0
 11
1074.984090482957
 21
1476.058617258178
 31
0.0
  0
CIRCLE
  5
281
330
37
100
AcDbEntity
  8
Sichtbar (ISO)
100
AcDbCircle
 10
1084.984090482957
 20
1771.058617258178
 30
0.0
 40
50.0
  0
LINE
  5
282
330
37
100
AcDbEntity
  8
Sichtbar (ISO)
100
AcDbLine
 10
1548.984090482957
 20
1153.558617258178
 30
0.0
 11
1548.984090482957
 21
1598.558617258178
 31
0.0
  0
LINE
  5
283
330
37
100
AcDbEntity
  8
Sichtbar (ISO)
100
AcDbLine
 10
1574.984090482957
 20
1572.382277597469
 30
0.0
 11
1574.984090482957
 21
1153.558617258178
 31
0.0
  0
LINE
  5
284
330
37
100
AcDbEntity
  8
Sichtbar (ISO)
100
AcDbLine
 10
1574.984090482957
 20
1153.558617258178
 30
0.0
 11
1548.984090482957
 21
1153.558617258178
 31
0.0
  0
LINE
  5
285
330
37
100
AcDbEntity
  8
Sichtbar (ISO)
100
AcDbLine
 10
1574.984090482957
 20
1598.558617258178
 30
0.0
 11
1548.984090482957
 21
1598.558617258178
 31
0.0
  0
LINE
  5
286
330
37
100
AcDbEntity
  8
Sichtbar (ISO)
100
AcDbLine
 10
1074.984090482957
 20
1476.058617258179
 30
0.0
 11
1074.984090482957
 21
1516.59331048373
 31
0.0
  0
LINE
  5
287
330
37
100
AcDbEntity
  8
Sichtbar (ISO)
100
AcDbLine
 10
1074.984090482957
 20
1153.558617258178
 30
0.0
 11
1074.984090482957
 21
1462.552836718209
 31
0.0
  0
LINE
  5
288
330
37
100
AcDbEntity
  8
Sichtbar (ISO)
100
AcDbLine
 10
1100.984090482957
 20
1153.558617258178
 30
0.0
 11
1100.984090482957
 21
1525.253564521574
 31
0.0
  0
LINE
  5
289
330
37
100
AcDbEntity
  8
Sichtbar (ISO)
100
AcDbLine
 10
1100.984090482957
 20
1153.558617258178
 30
0.0
 11
1074.984090482957
 21
1153.558617258178
 31
0.0
  0
LINE
  5
28A
330
37
100
AcDbEntity
  8
Sichtbar (ISO)
100
AcDbLine
 10
1108.348223613963
 20
1538.008617258178
 30
0.0
 11
1247.984090482957
 21
1538.008617258178
 31
0.0
  0
LINE
  5
28B
330
37
100
AcDbEntity
  8
Sichtbar (ISO)
100
AcDbLine
 10
1403.984090482957
 20
1538.008617258178
 30
0.0
 11
1548.984090482957
 21
1538.008617258178
 31
0.0
  0
LINE
  5
28C
330
37
100
AcDbEntity
  8
Sichtbar (ISO)
100
AcDbLine
 10
1100.984090482957
 20
1214.108617258178
 30
0.0
 11
1247.984090482957
 21
1214.108617258178
 31
0.0
  0
LINE
  5
28D
330
37
100
AcDbEntity
  8
Sichtbar (ISO)
100
AcDbLine
 10
1403.984090482957
 20
1214.108617258178
 30
0.0
 11
1548.984090482957
 21
1214.108617258178
 31
0.0
  0
LINE
  5
28E
330
37
100
AcDbEntity
  8
Sichtbar (ISO)
100
AcDbLine
 10
1403.984090482957
 20
1606.058617258178
 30
0.0
 11
1403.984090482957
 21
1486.058617258178
 31
0.0
  0
LINE
  5
28F
330
37
100
AcDbEntity
  8
Sichtbar (ISO)
100
AcDbLine
 10
1403.984090482957
 20
1266.058617258178
 30
0.0
 11
1403.984090482957
 21
1146.058617258178
 31
0.0
  0
LINE
  5
290
330
37
100
AcDbEntity
  8
Sichtbar (ISO)
100
AcDbLine
 10
1247.984090482957
 20
1606.058617258178
 30
0.0
 11
1403.984090482957
 21
1606.058617258178
 31
0.0
  0
LINE
  5
291
330
37
100
AcDbEntity
  8
Sichtbar (ISO)
100
AcDbLine
 10
1247.984090482957
 20
1266.058617258178
 30
0.0
 11
1403.984090482957
 21
1266.058617258178
 31
0.0
  0
LINE
  5
292
330
37
100
AcDbEntity
  8
Sichtbar (ISO)
100
AcDbLine
 10
1247.984090482957
 20
1146.058617258178
 30
0.0
 11
1247.984090482957
 21
1266.058617258178
 31
0.0
  0
LINE
  5
293
330
37
100
AcDbEntity
  8
Sichtbar (ISO)
100
AcDbLine
 10
1403.984090482957
 20
1146.058617258178
 30
0.0
 11
1247.984090482957
 21
1146.058617258178
 31
0.0
  0
LINE
  5
294
330
37
100
AcDbEntity
  8
Sichtbar (ISO)
100
AcDbLine
 10
1247.984090482957
 20
1486.058617258178
 30
0.0
 11
1247.984090482957
 21
1606.058617258178
 31
0.0
  0
LINE
  5
295
330
37
100
AcDbEntity
  8
Sichtbar (ISO)
100
AcDbLine
 10
1403.984090482957
 20
1486.058617258178
 30
0.0
 11
1247.984090482957
 21
1486.058617258178
 31
0.0
  0
LINE
  5
296
330
37
100
AcDbEntity
  8
Sichtbar (ISO)
100
AcDbLine
 10
1403.984090482957
 20
1266.058617258178
 30
0.0
 11
1403.984090482957
 21
1486.058617258178
 31
0.0
  0
LINE
  5
297
330
37
100
AcDbEntity
  8
Sichtbar (ISO)
100
AcDbLine
 10
1247.984090482957
 20
1486.058617258178
 30
0.0
 11
1247.984090482957
 21
1266.058617258178
 31
0.0
  0
LINE
  5
298
330
37
100
AcDbEntity
  8
Sichtbar (ISO)
100
AcDbLine
 10
1270.984090482957
 20
1707.695884561652
 30
0.0
 11
1378.984090482957
 21
1707.695884561652
 31
0.0
  0
LINE
  5
299
330
37
100
AcDbEntity
  8
Sichtbar (ISO)
100
AcDbLine
 10
1270.984090482957
 20
1689.695884561652
 30
0.0
 11
1270.984090482957
 21
1707.695884561652
 31
0.0
  0
LINE
  5
29A
330
37
100
AcDbEntity
  8
Sichtbar (ISO)
100
AcDbLine
 10
1378.984090482957
 20
1689.695884561652
 30
0.0
 11
1378.984090482957
 21
1707.695884561652
 31
0.0
  0
LINE
  5
29B
330
37
100
AcDbEntity
  8
Sichtbar (ISO)
100
AcDbLine
 10
1268.484090482957
 20
1689.695884561652
 30
0.0
 11
1381.484090482957
 21
1689.695884561652
 31
0.0
  0
LINE
  5
29C
330
37
100
AcDbEntity
  8
Sichtbar (ISO)
100
AcDbLine
 10
1268.484090482957
 20
1686.695884561652
 30
0.0
 11
1268.484090482957
 21
1689.695884561652
 31
0.0
  0
LINE
  5
29D
330
37
100
AcDbEntity
  8
Sichtbar (ISO)
100
AcDbLine
 10
1381.484090482957
 20
1686.695884561652
 30
0.0
 11
1381.484090482957
 21
1689.695884561652
 31
0.0
  0
LINE
  5
29E
330
37
100
AcDbEntity
  8
Sichtbar (ISO)
100
AcDbLine
 10
1266.484090482957
 20
1672.695884561652
 30
0.0
 11
1383.484090482957
 21
1672.695884561652
 31
0.0
  0
LINE
  5
29F
330
37
100
AcDbEntity
  8
Sichtbar (ISO)
100
AcDbLine
 10
1266.484090482957
 20
1686.695884561652
 30
0.0
 11
1383.484090482957
 21
1686.695884561652
 31
0.0
  0
LINE
  5
2A0
330
37
100
AcDbEntity
  8
Sichtbar (ISO)
100
AcDbLine
 10
1266.484090482957
 20
1672.695884561652
 30
0.0
 11
1266.484090482957
 21
1686.695884561652
 31
0.0
  0
LINE
  5
2A1
330
37
100
AcDbEntity
  8
Sichtbar (ISO)
100
AcDbLine
 10
1383.484090482957
 20
1672.695884561652
 30
0.0
 11
1383.484090482957
 21
1686.695884561652
 31
0.0
  0
LINE
  5
2A2
330
37
100
AcDbEntity
  8
Sichtbar (ISO)
100
AcDbLine
 10
1268.484090482957
 20
1644.695884561652
 30
0.0
 11
1381.484090482957
 21
1644.695884561652
 31
0.0
  0
LINE
  5
2A3
330
37
100
AcDbEntity
  8
Sichtbar (ISO)
100
AcDbLine
 10
1268.484090482957
 20
1644.695884561652
 30
0.0
 11
1268.484090482957
 21
1672.695884561652
 31
0.0
  0
LINE
  5
2A4
330
37
100
AcDbEntity
  8
Sichtbar (ISO)
100
AcDbLine
 10
1381.484090482957
 20
1644.695884561652
 30
0.0
 11
1381.484090482957
 21
1672.695884561652
 31
0.0
  0
LINE
  5
2A5
330
37
100
AcDbEntity
  8
Sichtbar (ISO)
100
AcDbLine
 10
1367.484090482957
 20
1630.695884561651
 30
0.0
 11
1282.484090482957
 21
1630.695884561651
 31
0.0
  0
LINE
  5
2A6
330
37
100
AcDbEntity
  8
Sichtbar (ISO)
100
AcDbLine
 10
1282.484090482957
 20
1630.695884561651
 30
0.0
 11
1268.484090482957
 21
1644.695884561652
 31
0.0
  0
LINE
  5
2A7
330
37
100
AcDbEntity
  8
Sichtbar (ISO)
100
AcDbLine
 10
1367.484090482957
 20
1630.695884561651
 30
0.0
 11
1381.484090482957
 21
1644.695884561652
 31
0.0
  0
LINE
  5
2A8
330
37
100
AcDbEntity
  8
Sichtbar (ISO)
100
AcDbLine
 10
1284.984090482957
 20
1617.695884561651
 30
0.0
 11
1364.984090482957
 21
1617.695884561651
 31
0.0
  0
LINE
  5
2A9
330
37
100
AcDbEntity
  8
Sichtbar (ISO)
100
AcDbLine
 10
1284.984090482957
 20
1606.058617258178
 30
0.0
 11
1284.984090482957
 21
1617.695884561651
 31
0.0
  0
LINE
  5
2AA
330
37
100
AcDbEntity
  8
Sichtbar (ISO)
100
AcDbLine
 10
1364.984090482957
 20
1606.058617258178
 30
0.0
 11
1364.984090482957
 21
1617.695884561651
 31
0.0
  0
LINE
  5
2AB
330
37
100
AcDbEntity
  8
Sichtbar (ISO)
100
AcDbLine
 10
1296.984090482957
 20
1617.695884561651
 30
0.0
 11
1296.984090482957
 21
1630.695884561651
 31
0.0
  0
LINE
  5
2AC
330
37
100
AcDbEntity
  8
Sichtbar (ISO)
100
AcDbLine
 10
1352.984090482957
 20
1617.695884561651
 30
0.0
 11
1352.984090482957
 21
1630.695884561651
 31
0.0
  0
LINE
  5
2AD
330
37
100
AcDbEntity
  8
Sichtbar (ISO)
100
AcDbLine
 10
1074.984090482957
 20
1462.552836718209
 30
0.0
 11
1074.984090482957
 21
1153.558617258178
 31
0.0
  0
LINE
  5
2AE
330
37
100
AcDbEntity
  8
Sichtbar (ISO)
100
AcDbLine
 10
1074.984090482957
 20
1516.59331048373
 30
0.0
 11
1074.984090482957
 21
1476.058617258178
 31
0.0
  0
LINE
  5
2AF
330
37
100
AcDbEntity
  8
Sichtbar (ISO)
100
AcDbLine
 10
1034.984090482957
 20
1462.552836718209
 30
0.0
 11
1034.984090482957
 21
1153.558617258178
 31
0.0
  0
LINE
  5
2B0
330
37
100
AcDbEntity
  8
Sichtbar (ISO)
100
AcDbLine
 10
1034.984090482957
 20
1516.59331048373
 30
0.0
 11
1034.984090482957
 21
1476.058617258178
 31
0.0
  0
LINE
  5
2B1
330
37
100
AcDbEntity
  8
Sichtbar (ISO)
100
AcDbLine
 10
1034.984090482957
 20
1153.558617258178
 30
0.0
 11
1074.984090482957
 21
1153.558617258178
 31
0.0
  0
LINE
  5
2B2
330
37
100
AcDbEntity
  8
Sichtbar (ISO)
100
AcDbLine
 10
1604.984090482957
 20
1572.38227759747
 30
0.0
 11
1604.984090482957
 21
1576.763446308176
 31
0.0
  0
LINE
  5
2B3
330
37
100
AcDbEntity
  8
Sichtbar (ISO)
100
AcDbLine
 10
1574.984090482957
 20
1576.763446308176
 30
0.0
 11
1574.984090482957
 21
1572.38227759747
 31
0.0
  0
LINE
  5
2B4
330
37
100
AcDbEntity
  8
Sichtbar (ISO)
100
AcDbLine
 10
1604.984090482957
 20
1576.763446308176
 30
0.0
 11
1604.984090482957
 21
1650.807354599708
 31
0.0
  0
LINE
  5
2B5
330
37
100
AcDbEntity
  8
Sichtbar (ISO)
100
AcDbLine
 10
1574.984090482957
 20
1576.763446308176
 30
0.0
 11
1574.984090482957
 21
1650.807354599708
 31
0.0
  0
LINE
  5
2B6
330
37
100
AcDbEntity
  8
Sichtbar (ISO)
100
AcDbLine
 10
1604.984090482957
 20
1661.058617258179
 30
0.0
 11
1604.984090482957
 21
1650.807354599708
 31
0.0
  0
LINE
  5
2B7
330
37
100
AcDbEntity
  8
Sichtbar (ISO)
100
AcDbLine
 10
1574.984090482957
 20
1661.058617258179
 30
0.0
 11
1574.984090482957
 21
1650.807354599708
 31
0.0
  0
LINE
  5
2B8
330
37
100
AcDbEntity
  8
Sichtbar (ISO)
100
AcDbLine
 10
1574.984090482957
 20
1661.058617258178
 30
0.0
 11
1604.984090482957
 21
1661.058617258178
 31
0.0
  0
LINE
  5
2B9
330
37
100
AcDbEntity
  8
Sichtbar (ISO)
100
AcDbLine
 10
1574.984090482957
 20
1153.558617258179
 30
0.0
 11
1574.984090482957
 21
1572.38227759747
 31
0.0
  0
LINE
  5
2BA
330
37
100
AcDbEntity
  8
Sichtbar (ISO)
100
AcDbLine
 10
1604.984090482957
 20
1572.38227759747
 30
0.0
 11
1604.984090482957
 21
1153.558617258179
 31
0.0
  0
LINE
  5
2BB
330
37
100
AcDbEntity
  8
Sichtbar (ISO)
100
AcDbLine
 10
1574.984090482957
 20
1153.558617258179
 30
0.0
 11
1604.984090482957
 21
1153.558617258179
 31
0.0
  0
LINE
  5
2BC
330
37
100
AcDbEntity
  8
Sichtbar (ISO)
100
AcDbLine
 10
1954.984090482944
 20
1536.738109182497
 30
0.0
 11
2540.728152573693
 21
1198.558617258179
 31
0.0
  0
LINE
  5
2BD
330
37
100
AcDbEntity
  8
Sichtbar (ISO)
100
AcDbLine
 10
1604.984090482957
 20
1553.558617258178
 30
0.0
 11
1641.107865595722
 21
1553.558617258178
 31
0.0
  0
LINE
  5
2BE
330
37
100
AcDbEntity
  8
Sichtbar (ISO)
100
AcDbLine
 10
1604.984090482957
 20
1198.558617258179
 30
0.0
 11
2540.728152573693
 21
1198.558617258179
 31
0.0
  0
LINE
  5
2BF
330
37
100
AcDbEntity
  8
Sichtbar (ISO)
100
AcDbLine
 10
1954.984090482954
 20
1376.058617258179
 30
0.0
 11
1954.984090482954
 21
1626.058617258258
 31
0.0
  0
ARC
  5
2C0
330
37
100
AcDbEntity
  8
Sichtbar (ISO)
100
AcDbCircle
 10
1994.984090482953
 20
1626.05861725826
 30
0.0
 40
40.00000000001259
100
AcDbArc
 50
80.00706433105341
 51
180.0
  0
LINE
  5
2C1
330
37
100
AcDbEntity
  8
Sichtbar (ISO)
100
AcDbLine
 10
2001.925160629031
 20
1665.451783483232
 30
0.0
 11
2240.388504436417
 21
1623.434577067708
 31
0.0
  0
LINE
  5
2C2
330
37
100
AcDbEntity
  8
Sichtbar (ISO)
100
AcDbLine
 10
2240.388504436417
 20
1623.434577067708
 30
0.0
 11
2247.329574582495
 21
1662.827743292679
 31
0.0
  0
LINE
  5
2C3
330
37
100
AcDbEntity
  8
Sichtbar (ISO)
100
AcDbLine
 10
2247.329574582495
 20
1662.827743292679
 30
0.0
 11
2067.116124838918
 21
1789.014559289937
 31
0.0
  0
LINE
  5
2C4
330
37
100
AcDbEntity
  8
Sichtbar (ISO)
100
AcDbLine
 10
2067.116124838918
 20
1789.014559289937
 30
0.0
 11
1767.11612483892
 21
1789.014559289916
 31
0.0
  0
LINE
  5
2C5
330
37
100
AcDbEntity
  8
Sichtbar (ISO)
100
AcDbLine
 10
1767.11612483892
 20
1789.014559289916
 30
0.0
 11
1604.984090482957
 21
1486.058617258189
 31
0.0
  0
LINE
  5
2C6
330
37
100
AcDbEntity
  8
Sichtbar (ISO)
100
AcDbLine
 10
1604.984090482957
 20
1376.058617258155
 30
0.0
 11
1954.984090482954
 21
1376.058617258179
 31
0.0
  0
LINE
  5
2C7
330
37
100
AcDbEntity
  8
Sichtbar (ISO)
100
AcDbLine
 10
2001.196747661947
 20
1643.241229766692
 30
0.0
 11
2373.462168487807
 21
1577.64811688626
 31
0.0
  0
ARC
  5
2C8
330
37
100
AcDbEntity
  8
Sichtbar (ISO)
100
AcDbCircle
 10
2375.370962777978
 20
1588.481237598123
 30
0.0
 40
11.0
100
AcDbArc
 50
261.4325225584328
 51
80.00706433104697
  0
LINE
  5
2C9
330
37
100
AcDbEntity
  8
Sichtbar (ISO)
100
AcDbLine
 10
2377.27975706815
 20
1599.314358309987
 30
0.0
 11
2240.3885044364
 21
1623.43457706761
 31
0.0
  0
ARC
  5
2CA
330
37
100
AcDbEntity
  8
Sichtbar (ISO)
100
AcDbCircle
 10
2003.105541952118
 20
1654.074350478555
 30
0.0
 40
11.0
100
AcDbArc
 50
80.00706433104555
 51
260.0070643310455
  0
LINE
  5
2CB
330
37
100
AcDbEntity
  8
Sichtbar (ISO)
100
AcDbLine
 10
1994.397588240078
 20
1576.231588982162
 30
0.0
 11
1984.899905194565
 21
1586.709852997111
 31
0.0
  0
LINE
  5
2CC
330
37
100
AcDbEntity
  8
Sichtbar (ISO)
100
AcDbLine
 10
1954.984090482962
 20
1578.166322075044
 30
0.0
 11
1994.397588240078
 21
1576.231588982162
 31
0.0
  0
LINE
  5
2CD
330
37
100
AcDbEntity
  8
Sichtbar (ISO)
100
AcDbLine
 10
1954.984090482961
 20
1598.190403976607
 30
0.0
 11
1985.390195679283
 21
1596.697826527341
 31
0.0
  0
LINE
  5
2CE
330
37
100
AcDbEntity
  8
Sichtbar (ISO)
100
AcDbLine
 10
1985.390195679283
 20
1596.697826527341
 30
0.0
 11
1984.899905194565
 21
1586.709852997111
 31
0.0
  0
LINE
  5
2CF
330
37
100
AcDbEntity
  8
Sichtbar (ISO)
100
AcDbLine
 10
2658.597828000401
 20
1543.627271748426
 30
0.0
 11
2309.018754442336
 21
1560.787438713551
 31
0.0
  0
LINE
  5
2D0
330
37
100
AcDbEntity
  8
Sichtbar (ISO)
100
AcDbLine
 10
1994.397588240078
 20
1576.231588982162
 30
0.0
 11
2309.018754442336
 21
1560.787438713551
 31
0.0
  0
LINE
  5
2D1
330
37
100
AcDbEntity
  8
Sichtbar (ISO)
100
AcDbLine
 10
2309.999335411771
 20
1580.763385774012
 30
0.0
 11
1985.390195679283
 21
1596.697826527341
 31
0.0
  0
LINE
  5
2D2
330
37
100
AcDbEntity
  8
Sichtbar (ISO)
100
AcDbLine
 10
2376.209582508114
 20
1577.513251595752
 30
0.0
 11
2659.578408969835
 21
1563.603218808887
 31
0.0
  0
LINE
  5
2D3
330
37
100
AcDbEntity
  8
Sichtbar (ISO)
100
AcDbLine
 10
2309.999335411771
 20
1580.763385774012
 30
0.0
 11
2373.494426015218
 21
1577.646533426041
 31
0.0
  0
LINE
  5
2D4
330
37
100
AcDbEntity
  8
Sichtbar (ISO)
100
AcDbLine
 10
2659.578408969835
 20
1563.603218808887
 30
0.0
 11
2658.597828000401
 21
1543.627271748427
 31
0.0
  0
LINE
  5
2D5
330
37
100
AcDbEntity
  8
Sichtbar (ISO)
100
AcDbLine
 10
3279.775063226073
 20
1598.558617258178
 30
0.0
 11
2834.775063226073
 21
1598.558617258178
 31
0.0
  0
LINE
  5
2D6
330
37
100
AcDbEntity
  8
Sichtbar (ISO)
100
AcDbLine
 10
2834.775063226082
 20
1821.058617258178
 30
0.0
 11
3279.775063226082
 21
1821.058617258178
 31
0.0
  0
LINE
  5
2D7
330
37
100
AcDbEntity
  8
Sichtbar (ISO)
100
AcDbLine
 10
2834.775063226082
 20
1598.558617258178
 30
0.0
 11
2834.775063226082
 21
1821.058617258178
 31
0.0
  0
LINE
  5
2D8
330
37
100
AcDbEntity
  8
Sichtbar (ISO)
100
AcDbLine
 10
3279.775063226082
 20
1821.058617258178
 30
0.0
 11
3279.775063226082
 21
1598.558617258178
 31
0.0
  0
LINE
  5
2D9
330
37
100
AcDbEntity
  8
Sichtbar (ISO)
100
AcDbLine
 10
3279.775063226073
 20
1376.058617258178
 30
0.0
 11
3279.775063226073
 21
1598.558617258178
 31
0.0
  0
LINE
  5
2DA
330
37
100
AcDbEntity
  8
Sichtbar (ISO)
100
AcDbLine
 10
2834.775063226073
 20
1598.558617258178
 30
0.0
 11
2834.775063226073
 21
1376.058617258178
 31
0.0
  0
ARC
  5
2DB
330
37
100
AcDbEntity
  8
Sichtbar (ISO)
100
AcDbCircle
 10
3057.275063226073
 20
1376.058617258178
 30
0.0
 40
222.5
100
AcDbArc
 50
180.0
 51
0.0
  0
CIRCLE
  5
2DC
330
37
100
AcDbEntity
  8
Sichtbar (ISO)
100
AcDbCircle
 10
2915.853706988764
 20
1517.479973495488
 30
0.0
 40
11.0
  0
CIRCLE
  5
2DD
330
37
100
AcDbEntity
  8
Sichtbar (ISO)
100
AcDbCircle
 10
3005.511254205569
 20
1569.243782515992
 30
0.0
 40
11.0
  0
CIRCLE
  5
2DE
330
37
100
AcDbEntity
  8
Sichtbar (ISO)
100
AcDbCircle
 10
3109.038872246578
 20
1569.243782515992
 30
0.0
 40
11.0
  0
CIRCLE
  5
2DF
330
37
100
AcDbEntity
  8
Sichtbar (ISO)
100
AcDbCircle
 10
3198.696419463382
 20
1517.479973495488
 30
0.0
 40
11.0
  0
CIRCLE
  5
2E0
330
37
100
AcDbEntity
  8
Sichtbar (ISO)
100
AcDbCircle
 10
3250.460228483887
 20
1427.822426278682
 30
0.0
 40
11.0
  0
CIRCLE
  5
2E1
330
37
100
AcDbEntity
  8
Sichtbar (ISO)
100
AcDbCircle
 10
3250.460228483887
 20
1324.294808237674
 30
0.0
 40
11.0
  0
CIRCLE
  5
2E2
330
37
100
AcDbEntity
  8
Sichtbar (ISO)
100
AcDbCircle
 10
3198.696419463382
 20
1234.637261020869
 30
0.0
 40
11.0
  0
CIRCLE
  5
2E3
330
37
100
AcDbEntity
  8
Sichtbar (ISO)
100
AcDbCircle
 10
3109.038872246578
 20
1182.873452000364
 30
0.0
 40
11.0
  0
CIRCLE
  5
2E4
330
37
100
AcDbEntity
  8
Sichtbar (ISO)
100
AcDbCircle
 10
3005.511254205569
 20
1182.873452000364
 30
0.0
 40
11.0
  0
CIRCLE
  5
2E5
330
37
100
AcDbEntity
  8
Sichtbar (ISO)
100
AcDbCircle
 10
2915.853706988764
 20
1234.637261020869
 30
0.0
 40
11.0
  0
CIRCLE
  5
2E6
330
37
100
AcDbEntity
  8
Sichtbar (ISO)
100
AcDbCircle
 10
2864.089897968259
 20
1324.294808237674
 30
0.0
 40
11.0
  0
CIRCLE
  5
2E7
330
37
100
AcDbEntity
  8
Sichtbar (ISO)
100
AcDbCircle
 10
2864.089897968259
 20
1427.822426278682
 30
0.0
 40
11.0
  0
CIRCLE
  5
2E8
330
37
100
AcDbEntity
  8
Sichtbar (ISO)
100
AcDbCircle
 10
3057.275063226073
 20
1376.058617258178
 30
0.0
 40
154.5
  0
ARC
  5
2E9
330
37
100
AcDbEntity
  8
Sichtbar (ISO)
100
AcDbCircle
 10
3057.27506322612
 20
1376.058617258172
 30
0.0
 40
204.999999999977
100
AcDbArc
 50
342.2272628590111
 51
347.7727371409891
  0
ARC
  5
2EA
330
37
100
AcDbEntity
  8
Sichtbar (ISO)
100
AcDbCircle
 10
3057.275063226104
 20
1376.058617258171
 30
0.0
 40
204.9999999999904
100
AcDbArc
 50
312.2272628590111
 51
317.772737140989
  0
ARC
  5
2EB
330
37
100
AcDbEntity
  8
Sichtbar (ISO)
100
AcDbCircle
 10
3057.275063226095
 20
1376.05861725819
 30
0.0
 40
205.0000000000125
100
AcDbArc
 50
282.2272628590115
 51
287.7727371409886
  0
ARC
  5
2EC
330
37
100
AcDbEntity
  8
Sichtbar (ISO)
100
AcDbCircle
 10
3057.275063226097
 20
1376.058617258172
 30
0.0
 40
204.9999999999934
100
AcDbArc
 50
252.227262859011
 51
257.7727371409888
  0
ARC
  5
2ED
330
37
100
AcDbEntity
  8
Sichtbar (ISO)
100
AcDbCircle
 10
3057.275063226093
 20
1376.058617258172
 30
0.0
 40
204.9999999999918
100
AcDbArc
 50
222.2272628590111
 51
227.7727371409888
  0
ARC
  5
2EE
330
37
100
AcDbEntity
  8
Sichtbar (ISO)
100
AcDbCircle
 10
3057.275063226104
 20
1376.058617258179
 30
0.0
 40
205.0000000000054
100
AcDbArc
 50
192.2272628590112
 51
197.7727371409885
  0
LINE
  5
2EF
330
37
100
AcDbEntity
  8
Sichtbar (ISO)
100
AcDbLine
 10
2827.275063226162
 20
1266.058617258178
 30
0.0
 11
2947.275063226161
 21
1146.058617258178
 31
0.0
  0
LINE
  5
2F0
330
37
100
AcDbEntity
  8
Sichtbar (ISO)
100
AcDbLine
 10
2834.775063226162
 20
1493.558617258178
 30
0.0
 11
2827.275063226162
 21
1486.058617258178
 31
0.0
  0
LINE
  5
2F1
330
37
100
AcDbEntity
  8
Sichtbar (ISO)
100
AcDbLine
 10
2827.275063226162
 20
1266.058617258178
 30
0.0
 11
2827.275063226162
 21
1486.058617258178
 31
0.0
  0
LINE
  5
2F2
330
37
100
AcDbEntity
  8
Sichtbar (ISO)
100
AcDbLine
 10
3167.275063226163
 20
1146.058617258178
 30
0.0
 11
2947.275063226161
 21
1146.058617258178
 31
0.0
  0
LINE
  5
2F3
330
37
100
AcDbEntity
  8
Sichtbar (ISO)
100
AcDbLine
 10
3287.275063226161
 20
1486.058617258178
 30
0.0
 11
3287.275063226161
 21
1266.058617258178
 31
0.0
  0
LINE
  5
2F4
330
37
100
AcDbEntity
  8
Sichtbar (ISO)
100
AcDbLine
 10
3167.275063226163
 20
1146.058617258178
 30
0.0
 11
3287.275063226161
 21
1266.058617258178
 31
0.0
  0
LINE
  5
2F5
330
37
100
AcDbEntity
  8
Sichtbar (ISO)
100
AcDbLine
 10
3287.275063226161
 20
1486.058617258178
 30
0.0
 11
3279.775063226161
 21
1493.558617258178
 31
0.0
  0
LINE
  5
2F6
330
37
100
AcDbEntity
  8
Sichtbar (ISO)
100
AcDbLine
 10
297.495885011609
 20
1493.558617258178
 30
0.0
 11
297.495885011609
 21
1516.59331048373
 31
0.0
  0
LINE
  5
2F7
330
37
100
AcDbEntity
  8
Sichtbar (ISO)
100
AcDbLine
 10
742.495885011609
 20
1516.59331048373
 30
0.0
 11
742.495885011609
 21
1493.558617258178
 31
0.0
  0
LINE
  5
2F8
330
37
100
AcDbEntity
  8
Sichtbar (ISO)
100
AcDbLine
 10
297.4958850116653
 20
1714.047102546582
 30
0.0
 11
297.4958850116315
 21
1516.59331048373
 31
0.0
  0
LINE
  5
2F9
330
37
100
AcDbEntity
  8
Sichtbar (ISO)
100
AcDbLine
 10
327.4958850116527
 20
1714.047102546582
 30
0.0
 11
297.4958850116653
 21
1714.047102546582
 31
0.0
  0
LINE
  5
2FA
330
37
100
AcDbEntity
  8
Sichtbar (ISO)
100
AcDbLine
 10
297.4958850116315
 20
1516.59331048373
 30
0.0
 11
320.5305782371834
 21
1516.59331048373
 31
0.0
  0
LINE
  5
2FB
330
37
100
AcDbEntity
  8
Sichtbar (ISO)
100
AcDbLine
 10
297.4958850116653
 20
1714.047102546582
 30
0.0
 11
297.4958850116652
 21
1821.058617258178
 31
0.0
  0
LINE
  5
2FC
330
37
100
AcDbEntity
  8
Sichtbar (ISO)
100
AcDbLine
 10
742.4958850116652
 20
1821.058617258178
 30
0.0
 11
742.4958850116652
 21
1714.047102546582
 31
0.0
  0
LINE
  5
2FD
330
37
100
AcDbEntity
  8
Sichtbar (ISO)
100
AcDbLine
 10
697.4958850116649
 20
1821.058617258178
 30
0.0
 11
742.4958850116652
 21
1821.058617258178
 31
0.0
  0
LINE
  5
2FE
330
37
100
AcDbEntity
  8
Sichtbar (ISO)
100
AcDbLine
 10
297.4958850116652
 20
1821.058617258178
 30
0.0
 11
342.4958850116652
 21
1821.058617258178
 31
0.0
  0
LINE
  5
2FF
330
37
100
AcDbEntity
  8
Sichtbar (ISO)
100
AcDbLine
 10
692.4958850116638
 20
1816.058617258178
 30
0.0
 11
697.4958850116649
 21
1821.058617258178
 31
0.0
  0
LINE
  5
300
330
37
100
AcDbEntity
  8
Sichtbar (ISO)
100
AcDbLine
 10
697.4958850116649
 20
1789.014559289799
 30
0.0
 11
697.4958850116649
 21
1821.058617258178
 31
0.0
  0
LINE
  5
301
330
37
100
AcDbEntity
  8
Sichtbar (ISO)
100
AcDbLine
 10
692.4958850116638
 20
1816.058617258178
 30
0.0
 11
692.4958850116638
 21
1789.014559289799
 31
0.0
  0
LINE
  5
302
330
37
100
AcDbEntity
  8
Sichtbar (ISO)
100
AcDbLine
 10
342.4958850116652
 20
1821.058617258178
 30
0.0
 11
347.4958850116638
 21
1816.058617258178
 31
0.0
  0
LINE
  5
303
330
37
100
AcDbEntity
  8
Sichtbar (ISO)
100
AcDbLine
 10
347.4958850116638
 20
1789.01455928981
 30
0.0
 11
347.4958850116638
 21
1816.058617258178
 31
0.0
  0
LINE
  5
304
330
37
100
AcDbEntity
  8
Sichtbar (ISO)
100
AcDbLine
 10
342.4958850116652
 20
1821.058617258178
 30
0.0
 11
342.4958850116652
 21
1789.01455928981
 31
0.0
  0
LINE
  5
305
330
37
100
AcDbEntity
  8
Sichtbar (ISO)
100
AcDbLine
 10
742.4958850116313
 20
1516.59331048373
 30
0.0
 11
742.4958850116652
 21
1714.047102546582
 31
0.0
  0
LINE
  5
306
330
37
100
AcDbEntity
  8
Sichtbar (ISO)
100
AcDbLine
 10
742.4958850116652
 20
1714.047102546582
 30
0.0
 11
712.4958850116653
 21
1714.047102546582
 31
0.0
  0
LINE
  5
307
330
37
100
AcDbEntity
  8
Sichtbar (ISO)
100
AcDbLine
 10
719.4611917860797
 20
1516.59331048373
 30
0.0
 11
742.4958850116313
 21
1516.59331048373
 31
0.0
  0
LINE
  5
308
330
37
100
AcDbEntity
  8
Sichtbar (ISO)
100
AcDbLine
 10
682.4958850116282
 20
1721.058617258178
 30
0.0
 11
357.4958850116157
 21
1721.058617258178
 31
0.0
  0
LINE
  5
309
330
37
100
AcDbEntity
  8
Sichtbar (ISO)
100
AcDbLine
 10
697.4958850116279
 20
1821.058617258178
 30
0.0
 11
342.4958850116281
 21
1821.058617258178
 31
0.0
  0
CIRCLE
  5
30A
330
37
100
AcDbEntity
  8
Sichtbar (ISO)
100
AcDbCircle
 10
519.9958850117733
 20
1376.058617258178
 30
0.0
 40
154.5
  0
LINE
  5
30B
330
37
100
AcDbEntity
  8
Sichtbar (ISO)
100
AcDbLine
 10
629.9958850117227
 20
1146.058617258178
 30
0.0
 11
749.9958850117227
 21
1266.058617258178
 31
0.0
  0
LINE
  5
30C
330
37
100
AcDbEntity
  8
Sichtbar (ISO)
100
AcDbLine
 10
749.9958850117227
 20
1486.058617258178
 30
0.0
 11
712.495885011723
 21
1523.558617258178
 31
0.0
  0
LINE
  5
30D
330
37
100
AcDbEntity
  8
Sichtbar (ISO)
100
AcDbLine
 10
749.9958850117227
 20
1486.058617258178
 30
0.0
 11
749.9958850117227
 21
1266.058617258178
 31
0.0
  0
LINE
  5
30E
330
37
100
AcDbEntity
  8
Sichtbar (ISO)
100
AcDbLine
 10
289.9958850117229
 20
1266.058617258178
 30
0.0
 11
289.9958850117229
 21
1486.058617258178
 31
0.0
  0
LINE
  5
30F
330
37
100
AcDbEntity
  8
Sichtbar (ISO)
100
AcDbLine
 10
629.9958850117227
 20
1146.058617258178
 30
0.0
 11
409.9958850117229
 21
1146.058617258178
 31
0.0
  0
LINE
  5
310
330
37
100
AcDbEntity
  8
Sichtbar (ISO)
100
AcDbLine
 10
327.4958850117102
 20
1523.558617258165
 30
0.0
 11
289.9958850117229
 21
1486.058617258178
 31
0.0
  0
LINE
  5
311
330
37
100
AcDbEntity
  8
Sichtbar (ISO)
100
AcDbLine
 10
289.9958850117229
 20
1266.058617258178
 30
0.0
 11
409.9958850117229
 21
1146.058617258178
 31
0.0
  0
LINE
  5
312
330
37
100
AcDbEntity
  8
Sichtbar (ISO)
100
AcDbLine
 10
465.9958850116992
 20
1707.695884561652
 30
0.0
 11
573.9958850116992
 21
1707.695884561652
 31
0.0
  0
LINE
  5
313
330
37
100
AcDbEntity
  8
Sichtbar (ISO)
100
AcDbLine
 10
465.9958850116992
 20
1697.533094022952
 30
0.0
 11
465.9958850116992
 21
1707.695884561652
 31
0.0
  0
LINE
  5
314
330
37
100
AcDbEntity
  8
Sichtbar (ISO)
100
AcDbLine
 10
573.9958850116992
 20
1697.533094022952
 30
0.0
 11
573.9958850116992
 21
1707.695884561652
 31
0.0
  0
ARC
  5
315
330
37
100
AcDbEntity
  8
Sichtbar (ISO)
100
AcDbCircle
 10
519.9958850117872
 20
1376.058617258184
 30
0.0
 40
222.4999999999932
100
AcDbArc
 50
43.08534000787051
 51
51.01401296190545
  0
ARC
  5
316
330
37
100
AcDbEntity
  8
Sichtbar (ISO)
100
AcDbCircle
 10
519.9958850117824
 20
1376.058617258179
 30
0.0
 40
222.5
100
AcDbArc
 50
149.9019558132813
 51
30.09804418672506
  0
ARC
  5
317
330
37
100
AcDbEntity
  8
Sichtbar (ISO)
100
AcDbCircle
 10
519.9958850117829
 20
1376.058617258179
 30
0.0
 40
222.5000000000003
100
AcDbArc
 50
128.9859870380947
 51
136.9146599921343
  0
CIRCLE
  5
318
330
37
100
AcDbEntity
  8
Sichtbar (ISO)
100
AcDbCircle
 10
378.5745287744729
 20
1517.479973495488
 30
0.0
 40
11.0
  0
ARC
  5
319
330
37
100
AcDbEntity
  8
Sichtbar (ISO)
100
AcDbCircle
 10
326.8107197539688
 20
1427.822426278683
 30
0.0
 40
11.0
100
AcDbArc
 50
86.42886303079766
 51
273.5711369692024
  0
CIRCLE
  5
31A
330
37
100
AcDbEntity
  8
Sichtbar (ISO)
100
AcDbCircle
 10
326.8107197539688
 20
1324.294808237674
 30
0.0
 40
11.0
  0
CIRCLE
  5
31B
330
37
100
AcDbEntity
  8
Sichtbar (ISO)
100
AcDbCircle
 10
378.5745287744729
 20
1234.637261020869
 30
0.0
 40
11.0
  0
CIRCLE
  5
31C
330
37
100
AcDbEntity
  8
Sichtbar (ISO)
100
AcDbCircle
 10
468.2320759912783
 20
1182.873452000365
 30
0.0
 40
11.0
  0
CIRCLE
  5
31D
330
37
100
AcDbEntity
  8
Sichtbar (ISO)
100
AcDbCircle
 10
571.7596940322867
 20
1182.873452000365
 30
0.0
 40
11.0
  0
CIRCLE
  5
31E
330
37
100
AcDbEntity
  8
Sichtbar (ISO)
100
AcDbCircle
 10
661.4172412490916
 20
1234.637261020869
 30
0.0
 40
11.0
  0
CIRCLE
  5
31F
330
37
100
AcDbEntity
  8
Sichtbar (ISO)
100
AcDbCircle
 10
713.1810502695961
 20
1324.294808237674
 30
0.0
 40
11.0
  0
ARC
  5
320
330
37
100
AcDbEntity
  8
Sichtbar (ISO)
100
AcDbCircle
 10
713.1810502695961
 20
1427.822426278683
 30
0.0
 40
11.0
100
AcDbArc
 50
266.4288630307312
 51
93.57113696926884
  0
CIRCLE
  5
321
330
37
100
AcDbEntity
  8
Sichtbar (ISO)
100
AcDbCircle
 10
661.4172412490916
 20
1517.479973495488
 30
0.0
 40
11.0
  0
CIRCLE
  5
322
330
37
100
AcDbEntity
  8
Sichtbar (ISO)
100
AcDbCircle
 10
519.9958850119688
 20
1376.058617258179
 30
0.0
 40
157.4
  0
ARC
  5
323
330
37
100
AcDbEntity
  8
Sichtbar (ISO)
100
AcDbCircle
 10
519.9958850119688
 20
1376.058617258179
 30
0.0
 40
177.4999999999999
100
AcDbArc
 50
108.5074157439483
 51
71.49258425616356
  0
LINE
  5
324
330
37
100
AcDbEntity
  8
Sichtbar (ISO)
100
AcDbLine
 10
682.4958850118863
 20
1461.127844552443
 30
0.0
 11
686.7913252013851
 21
1436.767192698484
 31
0.0
  0
LINE
  5
325
330
37
100
AcDbEntity
  8
Sichtbar (ISO)
100
AcDbLine
 10
697.4958850118865
 20
1376.058617258178
 30
0.0
 11
712.4958850118864
 21
1376.058617258178
 31
0.0
  0
LINE
  5
326
330
37
100
AcDbEntity
  8
Sichtbar (ISO)
100
AcDbLine
 10
712.4958850118864
 20
1376.058617258178
 30
0.0
 11
712.4958850118864
 21
1560.787438713547
 31
0.0
  0
LINE
  5
327
330
37
100
AcDbEntity
  8
Sichtbar (ISO)
100
AcDbLine
 10
682.4958850118863
 20
1461.127844552443
 30
0.0
 11
682.4958850118863
 21
1551.587910001828
 31
0.0
  0
LINE
  5
328
330
37
100
AcDbEntity
  8
Sichtbar (ISO)
100
AcDbLine
 10
682.4958850119712
 20
1623.434577067607
 30
0.0
 11
712.4958850119712
 21
1623.434577067607
 31
0.0
  0
LINE
  5
329
330
37
100
AcDbEntity
  8
Sichtbar (ISO)
100
AcDbLine
 10
712.4958850119712
 20
1623.434577067607
 30
0.0
 11
712.4958850119733
 21
1662.827743292565
 31
0.0
  0
LINE
  5
32A
330
37
100
AcDbEntity
  8
Sichtbar (ISO)
100
AcDbLine
 10
682.4958850119733
 20
1662.827743292565
 30
0.0
 11
712.4958850119733
 21
1662.827743292565
 31
0.0
  0
LINE
  5
32B
330
37
100
AcDbEntity
  8
Sichtbar (ISO)
100
AcDbLine
 10
682.4958850119712
 20
1623.434577067607
 30
0.0
 11
682.4958850119733
 21
1662.827743292565
 31
0.0
  0
LINE
  5
32C
330
37
100
AcDbEntity
  8
Sichtbar (ISO)
100
AcDbLine
 10
712.4958850119733
 20
1662.827743292565
 30
0.0
 11
712.4958850119196
 21
1789.014559289794
 31
0.0
  0
LINE
  5
32D
330
37
100
AcDbEntity
  8
Sichtbar (ISO)
100
AcDbLine
 10
682.4958850119197
 20
1789.014559289793
 30
0.0
 11
712.4958850119196
 21
1789.014559289793
 31
0.0
  0
LINE
  5
32E
330
37
100
AcDbEntity
  8
Sichtbar (ISO)
100
AcDbLine
 10
682.4958850119733
 20
1662.827743292565
 30
0.0
 11
682.4958850119197
 21
1789.014559289793
 31
0.0
  0
LINE
  5
32F
330
37
100
AcDbEntity
  8
Sichtbar (ISO)
100
AcDbLine
 10
353.2004448223725
 20
1436.76719269843
 30
0.0
 11
357.4958850118862
 21
1461.127844552471
 31
0.0
  0
LINE
  5
330
330
37
100
AcDbEntity
  8
Sichtbar (ISO)
100
AcDbLine
 10
357.4958850118862
 20
1461.127844552471
 30
0.0
 11
357.4958850118862
 21
1551.587910001884
 31
0.0
  0
LINE
  5
331
330
37
100
AcDbEntity
  8
Sichtbar (ISO)
100
AcDbLine
 10
327.4958850118736
 20
1376.058617258179
 30
0.0
 11
327.4958850118736
 21
1560.787438713605
 31
0.0
  0
LINE
  5
332
330
37
100
AcDbEntity
  8
Sichtbar (ISO)
100
AcDbLine
 10
327.4958850118736
 20
1376.058617258179
 30
0.0
 11
342.4958850118799
 21
1376.058617258179
 31
0.0
  0
LINE
  5
333
330
37
100
AcDbEntity
  8
Sichtbar (ISO)
100
AcDbLine
 10
357.4958850119728
 20
1662.827743292679
 30
0.0
 11
357.4958850119194
 21
1789.014559289937
 31
0.0
  0
LINE
  5
334
330
37
100
AcDbEntity
  8
Sichtbar (ISO)
100
AcDbLine
 10
357.4958850119708
 20
1623.434577067708
 30
0.0
 11
357.4958850119728
 21
1662.827743292679
 31
0.0
  0
LINE
  5
335
330
37
100
AcDbEntity
  8
Sichtbar (ISO)
100
AcDbLine
 10
327.4958850119582
 20
1623.434577067708
 30
0.0
 11
357.4958850119708
 21
1623.434577067708
 31
0.0
  0
LINE
  5
336
330
37
100
AcDbEntity
  8
Sichtbar (ISO)
100
AcDbLine
 10
327.4958850119603
 20
1662.827743292679
 30
0.0
 11
357.4958850119728
 21
1662.827743292679
 31
0.0
  0
LINE
  5
337
330
37
100
AcDbEntity
  8
Sichtbar (ISO)
100
AcDbLine
 10
327.4958850119582
 20
1623.434577067708
 30
0.0
 11
327.4958850119603
 21
1662.827743292679
 31
0.0
  0
LINE
  5
338
330
37
100
AcDbEntity
  8
Sichtbar (ISO)
100
AcDbLine
 10
327.4958850119069
 20
1789.014559289937
 30
0.0
 11
357.4958850119196
 21
1789.014559289937
 31
0.0
  0
LINE
  5
339
330
37
100
AcDbEntity
  8
Sichtbar (ISO)
100
AcDbLine
 10
327.4958850119603
 20
1662.827743292679
 30
0.0
 11
327.4958850119069
 21
1789.014559289937
 31
0.0
  0
ELLIPSE
  5
33A
330
37
100
AcDbEntity
  8
Sichtbar (ISO)
100
AcDbEllipse
 10
519.995885011957
 20
1671.50408097516
 30
0.0
 11
10.99999999999991
 21
-0.0000000000005768
 31
0.0
210
0.0
220
0.0
230
1.0
 40
0.1735267536519309
 41
2.838927379635876
 42
6.585850581134576
  0
LINE
  5
33B
330
37
100
AcDbEntity
  8
Sichtbar (ISO)
100
AcDbLine
 10
682.495885011968
 20
1623.434577067607
 30
0.0
 11
682.4958850119702
 21
1662.827743292563
 31
0.0
  0
LINE
  5
33C
330
37
100
AcDbEntity
  8
Sichtbar (ISO)
100
AcDbLine
 10
682.4958850119701
 20
1662.827743292563
 30
0.0
 11
357.495885011973
 21
1662.827743292563
 31
0.0
  0
LINE
  5
33D
330
37
100
AcDbEntity
  8
Sichtbar (ISO)
100
AcDbLine
 10
357.4958850119709
 20
1623.434577067607
 30
0.0
 11
357.495885011973
 21
1662.827743292563
 31
0.0
  0
LINE
  5
33E
330
37
100
AcDbEntity
  8
Sichtbar (ISO)
100
AcDbLine
 10
682.495885011968
 20
1623.434577067607
 30
0.0
 11
357.4958850119709
 21
1623.434577067607
 31
0.0
  0
LINE
  5
33F
330
37
100
AcDbEntity
  8
Sichtbar (ISO)
100
AcDbLine
 10
357.4958850119146
 20
1697.533094022949
 30
0.0
 11
682.4958850119117
 21
1697.533094022949
 31
0.0
  0
ELLIPSE
  5
340
330
37
100
AcDbEntity
  8
Sichtbar (ISO)
100
AcDbEllipse
 10
519.9958850119577
 20
1686.276518309521
 30
0.0
 11
-10.5
 21
0.0000000000000023
 31
0.0
210
0.0
220
0.0
230
1.0
 40
0.1735267536519364
 41
0.0
 42
6.283185307169896
  0
LINE
  5
341
330
37
100
AcDbEntity
  8
Sichtbar (ISO)
100
AcDbLine
 10
509.495885011957
 20
1670.935135465464
 30
0.0
 11
509.4958850119578
 21
1686.276518309521
 31
0.0
  0
LINE
  5
342
330
37
100
AcDbEntity
  8
Sichtbar (ISO)
100
AcDbLine
 10
530.495885011957
 20
1670.935135465463
 30
0.0
 11
530.4958850119577
 21
1686.276518309521
 31
0.0
  0
ELLIPSE
  5
343
330
37
100
AcDbEntity
  8
Sichtbar (ISO)
100
AcDbEllipse
 10
708.9958850120097
 20
1588.481237598123
 30
0.0
 11
-8.426052966607754
 21
8.426052966593569
 31
0.0
210
0.0
220
0.0
230
1.0
 40
0.8392046901012681
 41
2.443399304873049
 42
5.410582329099658
  0
ELLIPSE
  5
344
330
37
100
AcDbEntity
  8
Sichtbar (ISO)
100
AcDbEllipse
 10
708.9958850118993
 20
1654.074350478555
 30
0.0
 11
8.426052966592258
 21
8.426052966604881
 31
0.0
210
0.0
220
0.0
230
1.0
 40
0.8392046901011813
 41
5.584991958463032
 42
6.831977269984246
  0
ELLIPSE
  5
345
330
37
100
AcDbEntity
  8
Sichtbar (ISO)
100
AcDbEllipse
 10
330.9958850120097
 20
1588.481237598123
 30
0.0
 11
8.426052966591361
 21
8.426052966605713
 31
0.0
210
0.0
220
0.0
230
1.0
 40
0.8392046901011831
 41
0.8726029780781805
 42
3.839786002304754
  0
ELLIPSE
  5
346
330
37
100
AcDbEntity
  8
Sichtbar (ISO)
100
AcDbEllipse
 10
330.9958850118994
 20
1654.074350478555
 30
0.0
 11
-8.426052966608486
 21
8.426052966592838
 31
0.0
210
0.0
220
0.0
230
0.9999999999999998
 40
0.8392046901012681
 41
5.734393344374161
 42
6.981378655894437
  0
LINE
  5
347
330
37
100
AcDbEntity
  8
Sichtbar (ISO)
100
AcDbLine
 10
719.995885011896
 20
1655.983144768727
 30
0.0
 11
719.9958850120127
 21
1586.572443307952
 31
0.0
  0
LINE
  5
348
330
37
100
AcDbEntity
  8
Sichtbar (ISO)
100
AcDbLine
 10
710.9046793021807
 20
1577.481237598124
 30
0.0
 11
709.0997570304049
 21
1577.481237598124
 31
0.0
  0
LINE
  5
349
330
37
100
AcDbEntity
  8
Sichtbar (ISO)
100
AcDbLine
 10
330.8920129936189
 20
1577.481237598124
 30
0.0
 11
329.0870907218384
 21
1577.481237598124
 31
0.0
  0
LINE
  5
34A
330
37
100
AcDbEntity
  8
Sichtbar (ISO)
100
AcDbLine
 10
319.9958850120129
 20
1586.572443307952
 30
0.0
 11
319.9958850118961
 21
1655.983144768727
 31
0.0
  0
ELLIPSE
  5
34B
330
37
100
AcDbEntity
  8
Sichtbar (ISO)
100
AcDbEllipse
 10
519.9958850119918
 20
1560.787438713551
 30
0.0
 11
-192.4999999999996
 21
0.0000000000000426
 31
0.0
210
0.0
220
0.0
230
1.0
 40
0.0891437244941514
 41
-0.0000000000672573
 42
3.141592653522534
  0
LINE
  5
34C
330
37
100
AcDbEntity
  8
Sichtbar (ISO)
100
AcDbLine
 10
712.4958850119917
 20
1577.603773676131
 30
0.0
 11
712.4958850119914
 21
1560.787438713551
 31
0.0
  0
LINE
  5
34D
330
37
100
AcDbEntity
  8
Sichtbar (ISO)
100
AcDbLine
 10
327.4958850119925
 20
1577.603773676131
 30
0.0
 11
327.4958850119923
 21
1560.787438713551
 31
0.0
  0
ELLIPSE
  5
34E
330
37
100
AcDbEntity
  8
Sichtbar (ISO)
100
AcDbEllipse
 10
519.995885011992
 20
1580.763385774012
 30
0.0
 11
192.4999999999996
 21
-0.0000000000000426
 31
0.0
210
0.0
220
0.0
230
1.0
 40
0.0891437244941514
 41
3.332143618066713
 42
6.092634342573223
  0
LINE
  5
34F
330
37
100
AcDbEntity
  8
Sichtbar (ISO)
100
AcDbLine
 10
949.9840904815753
 20
795.775894257656
 30
0.0
 11
979.9840904815752
 21
795.775894257656
 31
0.0
  0
LINE
  5
350
330
37
100
AcDbEntity
  8
Sichtbar (ISO)
100
AcDbLine
 10
949.9840904815753
 20
350.7758942576564
 30
0.0
 11
949.9840904815753
 21
795.775894257656
 31
0.0
  0
LINE
  5
351
330
37
100
AcDbEntity
  8
Sichtbar (ISO)
100
AcDbLine
 10
979.9840904815752
 20
350.7758942576564
 30
0.0
 11
949.9840904815753
 21
350.7758942576564
 31
0.0
  0
LINE
  5
352
330
37
100
AcDbEntity
  8
Sichtbar (ISO)
100
AcDbLine
 10
979.9840904815752
 20
795.7758942577223
 30
0.0
 11
979.9840904815752
 21
350.7758942577223
 31
0.0
  0
LINE
  5
353
330
37
100
AcDbEntity
  8
Sichtbar (ISO)
100
AcDbLine
 10
979.9840904815752
 20
350.7758942577223
 30
0.0
 11
1019.984090481575
 21
350.7758942577221
 31
0.0
  0
LINE
  5
354
330
37
100
AcDbEntity
  8
Sichtbar (ISO)
100
AcDbLine
 10
1019.984090481575
 20
350.7758942577221
 30
0.0
 11
1019.984090481575
 21
795.7758942577223
 31
0.0
  0
LINE
  5
355
330
37
100
AcDbEntity
  8
Sichtbar (ISO)
100
AcDbLine
 10
979.9840904815752
 20
795.7758942577223
 30
0.0
 11
1019.984090481575
 21
795.7758942577223
 31
0.0
  0
LINE
  5
356
330
37
100
AcDbEntity
  8
Sichtbar (ISO)
100
AcDbLine
 10
1139.984090481575
 20
350.7758942577221
 30
0.0
 11
1209.984090481575
 21
350.7758942577221
 31
0.0
  0
LINE
  5
357
330
37
100
AcDbEntity
  8
Sichtbar (ISO)
100
AcDbLine
 10
1139.984090481575
 20
795.7758942577223
 30
0.0
 11
1209.984090481575
 21
795.7758942577223
 31
0.0
  0
LINE
  5
358
330
37
100
AcDbEntity
  8
Sichtbar (ISO)
100
AcDbLine
 10
1134.984090481575
 20
350.7758942577208
 30
0.0
 11
1139.984090481575
 21
350.7758942577221
 31
0.0
  0
LINE
  5
359
330
37
100
AcDbEntity
  8
Sichtbar (ISO)
100
AcDbLine
 10
1139.984090481575
 20
750.7758942577221
 30
0.0
 11
1134.984090481575
 21
750.7758942577208
 31
0.0
  0
LINE
  5
35A
330
37
100
AcDbEntity
  8
Sichtbar (ISO)
100
AcDbLine
 10
1139.984090481575
 20
745.7758942577207
 30
0.0
 11
1134.984090481575
 21
750.7758942577208
 31
0.0
  0
LINE
  5
35B
330
37
100
AcDbEntity
  8
Sichtbar (ISO)
100
AcDbLine
 10
1139.984090481575
 20
745.7758942577207
 30
0.0
 11
1139.984090481575
 21
750.7758942577221
 31
0.0
  0
LINE
  5
35C
330
37
100
AcDbEntity
  8
Sichtbar (ISO)
100
AcDbLine
 10
1134.984090481575
 20
745.7758942577005
 30
0.0
 11
1139.984090481575
 21
745.7758942577072
 31
0.0
  0
LINE
  5
35D
330
37
100
AcDbEntity
  8
Sichtbar (ISO)
100
AcDbLine
 10
1019.984090481575
 20
745.7758942576909
 30
0.0
 11
1034.984090481575
 21
745.7758942576909
 31
0.0
  0
LINE
  5
35E
330
37
100
AcDbEntity
  8
Sichtbar (ISO)
100
AcDbLine
 10
1034.984090481575
 20
750.7758942576929
 30
0.0
 11
1019.984090481575
 21
750.7758942576925
 31
0.0
  0
LINE
  5
35F
330
37
100
AcDbEntity
  8
Sichtbar (ISO)
100
AcDbLine
 10
1209.984090481575
 20
750.7758942577221
 30
0.0
 11
1139.984090481575
 21
750.7758942577221
 31
0.0
  0
LINE
  5
360
330
37
100
AcDbEntity
  8
Sichtbar (ISO)
100
AcDbLine
 10
1139.984090481575
 20
745.7758942577207
 30
0.0
 11
1204.984090481575
 21
745.7758942577207
 31
0.0
  0
LINE
  5
361
330
37
100
AcDbEntity
  8
Sichtbar (ISO)
100
AcDbLine
 10
1204.984090481575
 20
745.7758942577207
 30
0.0
 11
1209.984090481575
 21
750.7758942577221
 31
0.0
  0
LINE
  5
362
330
37
100
AcDbEntity
  8
Sichtbar (ISO)
100
AcDbLine
 10
1139.984090481575
 20
795.7758942577223
 30
0.0
 11
1134.984090481575
 21
795.7758942577208
 31
0.0
  0
LINE
  5
363
330
37
100
AcDbEntity
  8
Sichtbar (ISO)
100
AcDbLine
 10
1134.984090481575
 20
795.7758942577208
 30
0.0
 11
1134.984090481575
 21
750.7758942577208
 31
0.0
  0
LINE
  5
364
330
37
100
AcDbEntity
  8
Sichtbar (ISO)
100
AcDbLine
 10
1139.984090481575
 20
750.7758942577221
 30
0.0
 11
1139.984090481575
 21
795.7758942577223
 31
0.0
  0
LINE
  5
365
330
37
100
AcDbEntity
  8
Sichtbar (ISO)
100
AcDbLine
 10
1139.984090481575
 20
395.7758942577223
 30
0.0
 11
1139.984090481575
 21
400.7758942577208
 31
0.0
  0
LINE
  5
366
330
37
100
AcDbEntity
  8
Sichtbar (ISO)
100
AcDbLine
 10
1134.984090481575
 20
395.7758942577208
 30
0.0
 11
1139.984090481575
 21
400.7758942577208
 31
0.0
  0
LINE
  5
367
330
37
100
AcDbEntity
  8
Sichtbar (ISO)
100
AcDbLine
 10
1134.984090481575
 20
395.7758942577208
 30
0.0
 11
1139.984090481575
 21
395.7758942577223
 31
0.0
  0
LINE
  5
368
330
37
100
AcDbEntity
  8
Sichtbar (ISO)
100
AcDbLine
 10
1139.984090481575
 20
400.7758942577074
 30
0.0
 11
1134.984090481575
 21
400.7758942577006
 31
0.0
  0
LINE
  5
369
330
37
100
AcDbEntity
  8
Sichtbar (ISO)
100
AcDbLine
 10
1019.984090481575
 20
395.7758942576926
 30
0.0
 11
1034.984090481575
 21
395.7758942576926
 31
0.0
  0
LINE
  5
36A
330
37
100
AcDbEntity
  8
Sichtbar (ISO)
100
AcDbLine
 10
1034.984090481575
 20
400.7758942576911
 30
0.0
 11
1019.984090481575
 21
400.7758942576911
 31
0.0
  0
LINE
  5
36B
330
37
100
AcDbEntity
  8
Sichtbar (ISO)
100
AcDbLine
 10
1204.984090481575
 20
400.7758942577208
 30
0.0
 11
1139.984090481575
 21
400.7758942577208
 31
0.0
  0
LINE
  5
36C
330
37
100
AcDbEntity
  8
Sichtbar (ISO)
100
AcDbLine
 10
1139.984090481575
 20
395.7758942577223
 30
0.0
 11
1209.984090481575
 21
395.7758942577223
 31
0.0
  0
LINE
  5
36D
330
37
100
AcDbEntity
  8
Sichtbar (ISO)
100
AcDbLine
 10
1209.984090481575
 20
395.7758942577223
 30
0.0
 11
1204.984090481575
 21
400.7758942577208
 31
0.0
  0
LINE
  5
36E
330
37
100
AcDbEntity
  8
Sichtbar (ISO)
100
AcDbLine
 10
1139.984090481575
 20
350.7758942577221
 30
0.0
 11
1139.984090481575
 21
395.7758942577223
 31
0.0
  0
LINE
  5
36F
330
37
100
AcDbEntity
  8
Sichtbar (ISO)
100
AcDbLine
 10
1134.984090481575
 20
395.7758942577208
 30
0.0
 11
1134.984090481575
 21
350.7758942577208
 31
0.0
  0
LINE
  5
370
330
37
100
AcDbEntity
  8
Sichtbar (ISO)
100
AcDbLine
 10
1034.984090481575
 20
350.7758942576927
 30
0.0
 11
1019.984090481575
 21
350.7758942576927
 31
0.0
  0
LINE
  5
371
330
37
100
AcDbEntity
  8
Sichtbar (ISO)
100
AcDbLine
 10
1019.984090481575
 20
795.7758942576925
 30
0.0
 11
1034.984090481575
 21
795.7758942576925
 31
0.0
  0
LINE
  5
372
330
37
100
AcDbEntity
  8
Sichtbar (ISO)
100
AcDbLine
 10
1209.984090481575
 20
750.7758942577221
 30
0.0
 11
1209.984090481575
 21
795.7758942577223
 31
0.0
  0
LINE
  5
373
330
37
100
AcDbEntity
  8
Sichtbar (ISO)
100
AcDbLine
 10
1209.984090481575
 20
350.7758942577221
 30
0.0
 11
1209.984090481575
 21
395.7758942577223
 31
0.0
  0
LINE
  5
374
330
37
100
AcDbEntity
  8
Sichtbar (ISO)
100
AcDbLine
 10
1034.984090481575
 20
350.7758942577076
 30
0.0
 11
1134.984090481575
 21
350.7758942577076
 31
0.0
  0
LINE
  5
375
330
37
100
AcDbEntity
  8
Sichtbar (ISO)
100
AcDbLine
 10
1034.984090481575
 20
795.7758942577072
 30
0.0
 11
1134.984090481575
 21
795.7758942577072
 31
0.0
  0
LINE
  5
376
330
37
100
AcDbEntity
  8
Sichtbar (ISO)
100
AcDbLine
 10
1034.984090481575
 20
405.7758942577075
 30
0.0
 11
1034.984090481575
 21
740.7758942577072
 31
0.0
  0
LINE
  5
377
330
37
100
AcDbEntity
  8
Sichtbar (ISO)
100
AcDbLine
 10
1134.984090481575
 20
750.7758942577074
 30
0.0
 11
1134.984090481575
 21
395.7758942577076
 31
0.0
  0
LINE
  5
378
330
37
100
AcDbEntity
  8
Sichtbar (ISO)
100
AcDbLine
 10
1034.984090481575
 20
795.7758942577072
 30
0.0
 11
1034.984090481575
 21
740.7758942577072
 31
0.0
  0
LINE
  5
379
330
37
100
AcDbEntity
  8
Sichtbar (ISO)
100
AcDbLine
 10
1034.984090481575
 20
405.7758942577075
 30
0.0
 11
1034.984090481575
 21
350.7758942577076
 31
0.0
  0
LINE
  5
37A
330
37
100
AcDbEntity
  8
Sichtbar (ISO)
100
AcDbLine
 10
1548.984090481575
 20
350.7758942575903
 30
0.0
 11
1548.984090481575
 21
795.7758942575901
 31
0.0
  0
LINE
  5
37B
330
37
100
AcDbEntity
  8
Sichtbar (ISO)
100
AcDbLine
 10
1574.984090481575
 20
468.570257394189
 30
0.0
 11
1574.984090481575
 21
350.7758942575903
 31
0.0
  0
LINE
  5
37C
330
37
100
AcDbEntity
  8
Sichtbar (ISO)
100
AcDbLine
 10
1574.984090481575
 20
795.7758942575901
 30
0.0
 11
1574.984090481575
 21
677.9815311211081
 31
0.0
  0
LINE
  5
37D
330
37
100
AcDbEntity
  8
Sichtbar (ISO)
100
AcDbLine
 10
1574.984090481575
 20
350.7758942575903
 30
0.0
 11
1548.984090481575
 21
350.7758942575903
 31
0.0
  0
LINE
  5
37E
330
37
100
AcDbEntity
  8
Sichtbar (ISO)
100
AcDbLine
 10
1574.984090481575
 20
795.7758942575901
 30
0.0
 11
1548.984090481575
 21
795.7758942575901
 31
0.0
  0
LINE
  5
37F
330
37
100
AcDbEntity
  8
Sichtbar (ISO)
100
AcDbLine
 10
1134.984090481575
 20
735.2258942575903
 30
0.0
 11
1247.984090481575
 21
735.2258942575903
 31
0.0
  0
LINE
  5
380
330
37
100
AcDbEntity
  8
Sichtbar (ISO)
100
AcDbLine
 10
1403.984090481575
 20
735.2258942575903
 30
0.0
 11
1548.984090481575
 21
735.2258942575903
 31
0.0
  0
LINE
  5
381
330
37
100
AcDbEntity
  8
Sichtbar (ISO)
100
AcDbLine
 10
1134.984090481575
 20
411.3258942575901
 30
0.0
 11
1247.984090481575
 21
411.3258942575901
 31
0.0
  0
LINE
  5
382
330
37
100
AcDbEntity
  8
Sichtbar (ISO)
100
AcDbLine
 10
1403.984090481575
 20
411.3258942575901
 30
0.0
 11
1548.984090481575
 21
411.3258942575901
 31
0.0
  0
LINE
  5
383
330
37
100
AcDbEntity
  8
Sichtbar (ISO)
100
AcDbLine
 10
1403.984090481575
 20
803.2758942576228
 30
0.0
 11
1403.984090481575
 21
683.2758942576584
 31
0.0
  0
LINE
  5
384
330
37
100
AcDbEntity
  8
Sichtbar (ISO)
100
AcDbLine
 10
1247.984090481575
 20
803.2758942576228
 30
0.0
 11
1403.984090481575
 21
803.2758942576228
 31
0.0
  0
LINE
  5
385
330
37
100
AcDbEntity
  8
Sichtbar (ISO)
100
AcDbLine
 10
1247.984090481575
 20
683.2758942576584
 30
0.0
 11
1247.984090481575
 21
803.2758942576228
 31
0.0
  0
LINE
  5
386
330
37
100
AcDbEntity
  8
Sichtbar (ISO)
100
AcDbLine
 10
1403.984090481575
 20
683.2758942576584
 30
0.0
 11
1247.984090481575
 21
683.2758942576584
 31
0.0
  0
LINE
  5
387
330
37
100
AcDbEntity
  8
Sichtbar (ISO)
100
AcDbLine
 10
1403.984090481575
 20
463.2758942576587
 30
0.0
 11
1403.984090481575
 21
683.2758942576584
 31
0.0
  0
LINE
  5
388
330
37
100
AcDbEntity
  8
Sichtbar (ISO)
100
AcDbLine
 10
1247.984090481575
 20
683.2758942576584
 30
0.0
 11
1247.984090481575
 21
463.2758942576585
 31
0.0
  0
LINE
  5
389
330
37
100
AcDbEntity
  8
Sichtbar (ISO)
100
AcDbLine
 10
1403.984090481575
 20
463.2758942576587
 30
0.0
 11
1403.984090481575
 21
343.275894257623
 31
0.0
  0
LINE
  5
38A
330
37
100
AcDbEntity
  8
Sichtbar (ISO)
100
AcDbLine
 10
1247.984090481575
 20
463.2758942576585
 30
0.0
 11
1403.984090481575
 21
463.2758942576587
 31
0.0
  0
LINE
  5
38B
330
37
100
AcDbEntity
  8
Sichtbar (ISO)
100
AcDbLine
 10
1247.984090481575
 20
343.275894257623
 30
0.0
 11
1247.984090481575
 21
463.2758942576585
 31
0.0
  0
LINE
  5
38C
330
37
100
AcDbEntity
  8
Sichtbar (ISO)
100
AcDbLine
 10
1403.984090481575
 20
343.275894257623
 30
0.0
 11
1247.984090481575
 21
343.275894257623
 31
0.0
  0
CIRCLE
  5
38D
330
37
100
AcDbEntity
  8
Sichtbar (ISO)
100
AcDbCircle
 10
1324.984090481575
 20
573.2758942576886
 30
0.0
 40
54.0
  0
CIRCLE
  5
38E
330
37
100
AcDbEntity
  8
Sichtbar (ISO)
100
AcDbCircle
 10
1324.984090481575
 20
573.2758942576833
 30
0.0
 40
56.5
  0
CIRCLE
  5
38F
330
37
100
AcDbEntity
  8
Sichtbar (ISO)
100
AcDbCircle
 10
1324.984090481575
 20
573.2758942576825
 30
0.0
 40
58.50000000000001
  0
LINE
  5
390
330
37
100
AcDbEntity
  8
Sichtbar (ISO)
100
AcDbLine
 10
1604.984090481575
 20
468.5702573941892
 30
0.0
 11
1604.984090481575
 21
474.4832486245892
 31
0.0
  0
LINE
  5
391
330
37
100
AcDbEntity
  8
Sichtbar (ISO)
100
AcDbLine
 10
1574.984090481575
 20
474.483248624589
 30
0.0
 11
1574.984090481575
 21
468.5702573941892
 31
0.0
  0
LINE
  5
392
330
37
100
AcDbEntity
  8
Sichtbar (ISO)
100
AcDbLine
 10
1574.984090481575
 20
677.9815311211081
 30
0.0
 11
1574.984090481575
 21
672.0685398907107
 31
0.0
  0
LINE
  5
393
330
37
100
AcDbEntity
  8
Sichtbar (ISO)
100
AcDbLine
 10
1604.984090481575
 20
672.068539890711
 30
0.0
 11
1604.984090481575
 21
677.9815311211081
 31
0.0
  0
LINE
  5
394
330
37
100
AcDbEntity
  8
Sichtbar (ISO)
100
AcDbLine
 10
1604.984090481575
 20
474.483248624589
 30
0.0
 11
1604.984090481575
 21
548.5271569161426
 31
0.0
  0
LINE
  5
395
330
37
100
AcDbEntity
  8
Sichtbar (ISO)
100
AcDbLine
 10
1574.984090481575
 20
474.483248624589
 30
0.0
 11
1574.984090481575
 21
548.5271569161426
 31
0.0
  0
LINE
  5
396
330
37
100
AcDbEntity
  8
Sichtbar (ISO)
100
AcDbLine
 10
1574.984090481575
 20
598.024631599201
 30
0.0
 11
1574.984090481575
 21
672.068539890711
 31
0.0
  0
LINE
  5
397
330
37
100
AcDbEntity
  8
Sichtbar (ISO)
100
AcDbLine
 10
1604.984090481575
 20
598.024631599201
 30
0.0
 11
1604.984090481575
 21
672.068539890711
 31
0.0
  0
LINE
  5
398
330
37
100
AcDbEntity
  8
Sichtbar (ISO)
100
AcDbLine
 10
1604.984090481575
 20
598.0246315992011
 30
0.0
 11
1604.984090481575
 21
548.5271569161426
 31
0.0
  0
LINE
  5
399
330
37
100
AcDbEntity
  8
Sichtbar (ISO)
100
AcDbLine
 10
1574.984090481575
 20
598.0246315992011
 30
0.0
 11
1574.984090481575
 21
548.5271569161426
 31
0.0
  0
LINE
  5
39A
330
37
100
AcDbEntity
  8
Sichtbar (ISO)
100
AcDbLine
 10
1574.984090481575
 20
350.7758942575904
 30
0.0
 11
1574.984090481575
 21
468.5702573941892
 31
0.0
  0
LINE
  5
39B
330
37
100
AcDbEntity
  8
Sichtbar (ISO)
100
AcDbLine
 10
1574.984090481575
 20
677.9815311211081
 30
0.0
 11
1574.984090481575
 21
795.7758942575901
 31
0.0
  0
LINE
  5
39C
330
37
100
AcDbEntity
  8
Sichtbar (ISO)
100
AcDbLine
 10
1604.984090481575
 20
795.7758942575901
 30
0.0
 11
1604.984090481575
 21
677.9815311211081
 31
0.0
  0
LINE
  5
39D
330
37
100
AcDbEntity
  8
Sichtbar (ISO)
100
AcDbLine
 10
1604.984090481575
 20
468.5702573941892
 30
0.0
 11
1604.984090481575
 21
350.7758942575903
 31
0.0
  0
LINE
  5
39E
330
37
100
AcDbEntity
  8
Sichtbar (ISO)
100
AcDbLine
 10
1574.984090481575
 20
795.7758942575901
 30
0.0
 11
1604.984090481575
 21
795.7758942575901
 31
0.0
  0
LINE
  5
39F
330
37
100
AcDbEntity
  8
Sichtbar (ISO)
100
AcDbLine
 10
1574.984090481575
 20
350.7758942575904
 30
0.0
 11
1604.984090481575
 21
350.7758942575903
 31
0.0
  0
LINE
  5
3A0
330
37
100
AcDbEntity
  8
Sichtbar (ISO)
100
AcDbLine
 10
2247.32957458111
 20
735.7758942576755
 30
0.0
 11
2247.32957458111
 21
765.7758942576755
 31
0.0
  0
LINE
  5
3A1
330
37
100
AcDbEntity
  8
Sichtbar (ISO)
100
AcDbLine
 10
2247.32957458111
 20
765.7758942576755
 30
0.0
 11
2067.116124837534
 21
765.775894257713
 31
0.0
  0
LINE
  5
3A2
330
37
100
AcDbEntity
  8
Sichtbar (ISO)
100
AcDbLine
 10
2067.116124837534
 20
735.775894257713
 30
0.0
 11
2067.116124837534
 21
765.775894257713
 31
0.0
  0
LINE
  5
3A3
330
37
100
AcDbEntity
  8
Sichtbar (ISO)
100
AcDbLine
 10
2247.32957458111
 20
735.7758942576755
 30
0.0
 11
2067.116124837534
 21
735.775894257713
 31
0.0
  0
LINE
  5
3A4
330
37
100
AcDbEntity
  8
Sichtbar (ISO)
100
AcDbLine
 10
2067.116124837534
 20
765.775894257713
 30
0.0
 11
1767.116124837537
 21
765.775894257713
 31
0.0
  0
LINE
  5
3A5
330
37
100
AcDbEntity
  8
Sichtbar (ISO)
100
AcDbLine
 10
1767.116124837537
 20
735.7758942577127
 30
0.0
 11
1767.116124837537
 21
765.775894257713
 31
0.0
  0
LINE
  5
3A6
330
37
100
AcDbEntity
  8
Sichtbar (ISO)
100
AcDbLine
 10
2067.116124837534
 20
735.775894257713
 30
0.0
 11
1767.116124837537
 21
735.7758942577127
 31
0.0
  0
LINE
  5
3A7
330
37
100
AcDbEntity
  8
Sichtbar (ISO)
100
AcDbLine
 10
1767.116124837537
 20
765.775894257713
 30
0.0
 11
1604.984090481575
 21
765.7758942576231
 31
0.0
  0
LINE
  5
3A8
330
37
100
AcDbEntity
  8
Sichtbar (ISO)
100
AcDbLine
 10
1767.116124837537
 20
735.7758942577127
 30
0.0
 11
1604.984090481575
 21
735.7758942576231
 31
0.0
  0
LINE
  5
3A9
330
37
100
AcDbEntity
  8
Sichtbar (ISO)
100
AcDbLine
 10
1767.116124837538
 20
410.7758942577127
 30
0.0
 11
1604.984090481575
 21
410.7758942576229
 31
0.0
  0
LINE
  5
3AA
330
37
100
AcDbEntity
  8
Sichtbar (ISO)
100
AcDbLine
 10
2067.116124837536
 20
410.7758942577127
 30
0.0
 11
1767.116124837538
 21
410.7758942577127
 31
0.0
  0
LINE
  5
3AB
330
37
100
AcDbEntity
  8
Sichtbar (ISO)
100
AcDbLine
 10
2247.329574581113
 20
410.7758942576753
 30
0.0
 11
2067.116124837536
 21
410.7758942577127
 31
0.0
  0
LINE
  5
3AC
330
37
100
AcDbEntity
  8
Sichtbar (ISO)
100
AcDbLine
 10
2247.329574581113
 20
380.7758942576627
 30
0.0
 11
2247.329574581113
 21
410.7758942576753
 31
0.0
  0
LINE
  5
3AD
330
37
100
AcDbEntity
  8
Sichtbar (ISO)
100
AcDbLine
 10
2067.116124837536
 20
380.7758942577002
 30
0.0
 11
2067.116124837536
 21
410.7758942577127
 31
0.0
  0
LINE
  5
3AE
330
37
100
AcDbEntity
  8
Sichtbar (ISO)
100
AcDbLine
 10
2247.329574581113
 20
380.7758942576627
 30
0.0
 11
2067.116124837536
 21
380.7758942577002
 31
0.0
  0
LINE
  5
3AF
330
37
100
AcDbEntity
  8
Sichtbar (ISO)
100
AcDbLine
 10
1767.116124837538
 20
380.7758942577002
 30
0.0
 11
1767.116124837538
 21
410.7758942577127
 31
0.0
  0
LINE
  5
3B0
330
37
100
AcDbEntity
  8
Sichtbar (ISO)
100
AcDbLine
 10
2067.116124837536
 20
380.7758942577002
 30
0.0
 11
1767.116124837538
 21
380.7758942577002
 31
0.0
  0
LINE
  5
3B1
330
37
100
AcDbEntity
  8
Sichtbar (ISO)
100
AcDbLine
 10
1767.116124837538
 20
380.7758942577002
 30
0.0
 11
1604.984090481575
 21
380.7758942576104
 31
0.0
  0
ELLIPSE
  5
3B2
330
37
100
AcDbEntity
  8
Sichtbar (ISO)
100
AcDbEllipse
 10
2198.088116799915
 20
573.2758942576766
 30
0.0
 11
0.0000000000185219
 21
-10.99999999999991
 31
0.0
210
0.0
220
0.0
230
1.0
 40
0.9848291556239379
 41
2.831637572226033
 42
6.593140388539126
  0
LINE
  5
3B3
330
37
100
AcDbEntity
  8
Sichtbar (ISO)
100
AcDbLine
 10
2247.329574581111
 20
735.7758942576724
 30
0.0
 11
2247.329574581111
 21
410.7758942576754
 31
0.0
  0
LINE
  5
3B4
330
37
100
AcDbEntity
  8
Sichtbar (ISO)
100
AcDbLine
 10
2050.363743456326
 20
410.7758942576857
 30
0.0
 11
2050.363743456325
 21
735.7758942576831
 31
0.0
  0
LINE
  5
3B5
330
37
100
AcDbEntity
  8
Sichtbar (ISO)
100
AcDbLine
 10
2043.422673310249
 20
410.7758942576741
 30
0.0
 11
2043.422673310249
 21
735.7758942576712
 31
0.0
  0
ELLIPSE
  5
3B6
330
37
100
AcDbEntity
  8
Sichtbar (ISO)
100
AcDbEllipse
 10
2200.691018104695
 20
573.2758942576809
 30
0.0
 11
-0.0000000000000036
 21
-10.5
 31
0.0
210
0.0
220
0.0
230
1.0
 40
0.984829155623969
 41
0.0000000000000535
 42
6.283185307179585
  0
LINE
  5
3B7
330
37
100
AcDbEntity
  8
Sichtbar (ISO)
100
AcDbLine
 10
2194.859138477445
 20
583.7758942576713
 30
0.0
 11
2200.691018104695
 21
583.7758942576811
 31
0.0
  0
LINE
  5
3B8
330
37
100
AcDbEntity
  8
Sichtbar (ISO)
100
AcDbLine
 10
2194.859138477451
 20
562.775894257671
 30
0.0
 11
2200.691018104695
 21
562.7758942576811
 31
0.0
  0
ELLIPSE
  5
3B9
330
37
100
AcDbEntity
  8
Sichtbar (ISO)
100
AcDbEllipse
 10
2375.370962776597
 20
762.2758942576517
 30
0.0
 11
-10.95820076085729
 21
-10.95820076085671
 31
0.0
210
0.0
220
0.0
230
1.0
 40
0.0874265440730553
 41
1.658001141476689
 42
3.228797468271582
  0
ELLIPSE
  5
3BA
330
37
100
AcDbEntity
  8
Sichtbar (ISO)
100
AcDbEllipse
 10
2003.105541950736
 20
762.2758942576715
 30
0.0
 11
10.95820076085699
 21
-10.95820076085759
 31
0.0
210
0.0
220
0.0
230
1.0
 40
0.0874265440733495
 41
1.807402527387028
 42
3.22879746827145
  0
ELLIPSE
  5
3BB
330
37
100
AcDbEntity
  8
Sichtbar (ISO)
100
AcDbEllipse
 10
2375.370962776597
 20
384.275894257652
 30
0.0
 11
-10.958200760857
 21
10.95820076085754
 31
0.0
210
0.0
220
0.0
230
1.0
 40
0.0874265440733482
 41
3.054387838908278
 42
4.625184165703169
  0
ELLIPSE
  5
3BC
330
37
100
AcDbEntity
  8
Sichtbar (ISO)
100
AcDbEllipse
 10
2003.105541950736
 20
384.2758942576717
 30
0.0
 11
10.95820076085729
 21
10.95820076085671
 31
0.0
210
0.0
220
0.0
230
1.0
 40
0.0874265440730552
 41
3.054387838908422
 42
4.475782779791889
  0
LINE
  5
3BD
330
37
100
AcDbEntity
  8
Sichtbar (ISO)
100
AcDbLine
 10
1992.272421238872
 20
773.275894257672
 30
0.0
 11
2386.204083488461
 21
773.2758942576513
 31
0.0
  0
LINE
  5
3BE
330
37
100
AcDbEntity
  8
Sichtbar (ISO)
100
AcDbLine
 10
2386.370962776597
 20
773.1090149695155
 30
0.0
 11
2386.370962776597
 21
373.4427735457883
 31
0.0
  0
LINE
  5
3BF
330
37
100
AcDbEntity
  8
Sichtbar (ISO)
100
AcDbLine
 10
2386.20408348846
 20
373.2758942576515
 30
0.0
 11
1992.272421238872
 21
373.2758942576721
 31
0.0
  0
LINE
  5
3C0
330
37
100
AcDbEntity
  8
Sichtbar (ISO)
100
AcDbLine
 10
1992.105541950736
 20
373.442773545808
 30
0.0
 11
1992.105541950736
 21
380.7758942576602
 31
0.0
  0
LINE
  5
3C1
330
37
100
AcDbEntity
  8
Sichtbar (ISO)
100
AcDbLine
 10
1992.105541950736
 20
410.7758942576602
 30
0.0
 11
1992.105541950736
 21
735.775894257673
 31
0.0
  0
LINE
  5
3C2
330
37
100
AcDbEntity
  8
Sichtbar (ISO)
100
AcDbLine
 10
1992.105541950736
 20
765.775894257673
 30
0.0
 11
1992.105541950736
 21
773.1090149695352
 31
0.0
  0
LINE
  5
3C3
330
37
100
AcDbEntity
  8
Sichtbar (ISO)
100
AcDbLine
 10
1984.899905193184
 20
410.7758942576401
 30
0.0
 11
1984.899905193184
 21
413.2758942576536
 31
0.0
  0
LINE
  5
3C4
330
37
100
AcDbEntity
  8
Sichtbar (ISO)
100
AcDbLine
 10
1984.899905193184
 20
733.2758942576528
 30
0.0
 11
1984.899905193184
 21
735.7758942576524
 31
0.0
  0
LINE
  5
3C5
330
37
100
AcDbEntity
  8
Sichtbar (ISO)
100
AcDbLine
 10
1884.529879406162
 20
733.2758942576515
 30
0.0
 11
1884.529879406162
 21
413.2758942576519
 31
0.0
  0
LINE
  5
3C6
330
37
100
AcDbEntity
  8
Sichtbar (ISO)
100
AcDbLine
 10
1885.510460375597
 20
413.2758942576581
 30
0.0
 11
1885.510460375597
 21
733.2758942576573
 31
0.0
  0
ELLIPSE
  5
3C7
330
37
100
AcDbEntity
  8
Sichtbar (ISO)
100
AcDbEllipse
 10
2309.99933541039
 20
573.2758942576515
 30
0.0
 11
-349.5790735580641
 21
0.0000000000050719
 31
0.0
210
0.0
220
0.0
230
1.0
 40
0.5506622522930448
 41
1.791039971412839
 42
4.492145335766706
  0
LINE
  5
3C8
330
37
100
AcDbEntity
  8
Sichtbar (ISO)
100
AcDbLine
 10
1985.390195677901
 20
735.7758942576552
 30
0.0
 11
1985.390195677901
 21
733.275894257656
 31
0.0
  0
LINE
  5
3C9
330
37
100
AcDbEntity
  8
Sichtbar (ISO)
100
AcDbLine
 10
1885.510460375597
 20
413.2758942576581
 30
0.0
 11
1985.390195677901
 21
413.2758942576566
 31
0.0
  0
LINE
  5
3CA
330
37
100
AcDbEntity
  8
Sichtbar (ISO)
100
AcDbLine
 10
1884.529879406162
 20
413.2758942576519
 30
0.0
 11
1885.510460375597
 21
413.2758942576581
 31
0.0
  0
LINE
  5
3CB
330
37
100
AcDbEntity
  8
Sichtbar (ISO)
100
AcDbLine
 10
1985.390195677901
 20
413.2758942576566
 30
0.0
 11
1985.390195677901
 21
410.7758942576431
 31
0.0
  0
LINE
  5
3CC
330
37
100
AcDbEntity
  8
Sichtbar (ISO)
100
AcDbLine
 10
1885.510460375597
 20
733.2758942576573
 30
0.0
 11
1884.529879406162
 21
733.2758942576515
 31
0.0
  0
LINE
  5
3CD
330
37
100
AcDbEntity
  8
Sichtbar (ISO)
100
AcDbLine
 10
1985.390195677901
 20
733.275894257656
 30
0.0
 11
1885.510460375597
 21
733.2758942576573
 31
0.0
  0
ENDSEC
  0
SECTION
  2
OBJECTS
  0
DICTIONARY
  5
C
330
0
100
AcDbDictionary
281
     1
  3
ACAD_COLOR
350
30
  3
ACAD_GROUP
350
D
  3
ACAD_LAYOUT
350
2F
  3
ACAD_MATERIAL
350
10
  3
ACAD_MLINESTYLE
350
2C
  3
ACAD_PLOTSETTINGS
350
2E
  3
ACAD_PLOTSTYLENAME
350
E
  3
ACAD_TABLESTYLE
350
31
  3
ACAD_VISUALSTYLE
350
14
  3
AcDbVariableDictionary
350
3CE
  3
DWGPROPS
350
3E8
  0
DICTIONARY
  5
3F2
330
24C
100
AcDbDictionary
280
     1
281
     1
  3
ACAD_MTEXT_RT
360
3F3
  0
DICTIONARY
  5
30
102
{ACAD_REACTORS
330
C
102
}
330
C
100
AcDbDictionary
281
     1
  0
DICTIONARY
  5
D
102
{ACAD_REACTORS
330
C
102
}
330
C
100
AcDbDictionary
281
     1
  0
DICTIONARY
  5
2F
102
{ACAD_REACTORS
330
C
102
}
330
C
100
AcDbDictionary
281
     1
  3
Layout1
350
36
  3
Layout2
350
3E
  3
Model
350
3A
  0
DICTIONARY
  5
10
102
{ACAD_REACTORS
330
C
102
}
330
C
100
AcDbDictionary
281
     1
  3
ByBlock
350
12
  3
ByLayer
350
11
  3
Global
350
13
  0
DICTIONARY
  5
2C
102
{ACAD_REACTORS
330
C
102
}
330
C
100
AcDbDictionary
281
     1
  3
Standard
350
2D
  0
DICTIONARY
  5
2E
102
{ACAD_REACTORS
330
C
102
}
330
C
100
AcDbDictionary
281
     1
  0
ACDBDICTIONARYWDFLT
  5
E
102
{ACAD_REACTORS
330
C
102
}
330
C
100
AcDbDictionary
281
     1
  3
Normal
350
F
100
AcDbDictionaryWithDefault
340
F
  0
DICTIONARY
  5
31
102
{ACAD_REACTORS
330
C
102
}
330
C
100
AcDbDictionary
281
     1
  3
Standard
350
32
  0
DICTIONARY
  5
14
102
{ACAD_REACTORS
330
C
102
}
330
C
100
AcDbDictionary
281
     1
  3
2dWireframe
350
1A
  3
3D Hidden
350
1C
  3
3dWireframe
350
1B
  3
Basic
350
19
  3
Brighten
350
20
  3
ColorChange
350
24
  3
Conceptual
350
1D
  3
Dim
350
1F
  3
Facepattern
350
23
  3
Flat
350
15
  3
FlatWithEdges
350
16
  3
Gouraud
350
17
  3
GouraudWithEdges
350
18
  3
Linepattern
350
22
  3
Realistic
350
1E
  3
Thicken
350
21
  0
DICTIONARY
  5
3CE
102
{ACAD_REACTORS
330
C
102
}
330
C
100
AcDbDictionary
281
     1
  3
CTABLESTYLE
350
3CF
  3
DIMASSOC
350
3D3
  3
HIDETEXT
350
3D2
  3
INDEXCTL
350
3D1
  3
SORTENTS
350
3D0
  0
XRECORD
  5
3E8
102
{ACAD_REACTORS
330
C
102
}
330
C
100
AcDbXrecord
280
     1
  1
DWGPROPS COOKIE
  2
Minimale-Länge
  3

  4
Reinhardt
  6

  7

  8

  9
1:1
300
Manager=
301
Firma=
302
Kategorie=
303
Bauteilnummer=Alligator300 KL-Flansch 
304
Bezeichnung=
305
Projekt=CAD extern
306
Konstrukteur=Reinhardt
307
Ingenieur=
308
Bevollmächtigter=300
309
Kostenstelle=
 40
0.0000391782407407
 41
2454089.398276759
 42
2454089.398276759
  1

 90
       16
300
Zulieferer=Zangenberg
300
Benutzerstatus=
300
Konstruktionsstatus=InBearbeitung
300
Kontrolliert von=
300
Konstruktion genehmigt von=
300
Fertigung genehmigt von=
  0
XRECORD
  5
3F3
102
{ACAD_REACTORS
330
3F2
102
}
330
3F2
100
AcDbXrecord
280
     1
 40
11072.0
  1
Maßstab:1:1
  0
LAYOUT
  5
36
102
{ACAD_XDICTIONARY
360
3EB
102
}
102
{ACAD_REACTORS
330
2F
102
}
330
2F
100
AcDbPlotSettings
  1

  2

  4

  6

 40
0.0
 41
0.0
 42
0.0
 43
0.0
 44
0.0
 45
0.0
 46
0.0
 47
0.0
 48
0.0
 49
0.0
140
0.0
141
0.0
142
1.0
143
1.0
 70
   688
 72
     0
 73
     0
 74
     5
  7

 75
    16
147
1.0
148
0.0
149
0.0
100
AcDbLayout
  1
Layout1
 70
     1
 71
     1
 10
0.0
 20
0.0
 11
12.0
 21
9.0
 12
0.0
 22
0.0
 32
0.0
 14
0.0
 24
0.0
 34
0.0
 15
0.0
 25
0.0
 35
0.0
146
0.0
 13
0.0
 23
0.0
 33
0.0
 16
1.0
 26
0.0
 36
0.0
 17
0.0
 27
1.0
 37
0.0
 76
     0
330
33
  0
LAYOUT
  5
3E
102
{ACAD_XDICTIONARY
360
3EF
102
}
102
{ACAD_REACTORS
330
2F
102
}
330
2F
100
AcDbPlotSettings
  1

  2

  4

  6

 40
0.0
 41
0.0
 42
0.0
 43
0.0
 44
0.0
 45
0.0
 46
0.0
 47
0.0
 48
0.0
 49
0.0
140
0.0
141
0.0
142
1.0
143
1.0
 70
   688
 72
     0
 73
     0
 74
     5
  7

 75
    16
147
1.0
148
0.0
149
0.0
100
AcDbLayout
  1
Layout2
 70
     1
 71
     2
 10
0.0
 20
0.0
 11
12.0
 21
9.0
 12
0.0
 22
0.0
 32
0.0
 14
0.0
 24
0.0
 34
0.0
 15
0.0
 25
0.0
 35
0.0
146
0.0
 13
0.0
 23
0.0
 33
0.0
 16
1.0
 26
0.0
 36
0.0
 17
0.0
 27
1.0
 37
0.0
 76
     0
330
3B
  0
LAYOUT
  5
3A
102
{ACAD_XDICTIONARY
360
3ED
102
}
102
{ACAD_REACTORS
330
2F
102
}
330
2F
100
AcDbPlotSettings
  1

  2

  4

  6

 40
0.0
 41
0.0
 42
0.0
 43
0.0
 44
0.0
 45
0.0
 46
0.0
 47
0.0
 48
0.0
 49
0.0
140
0.0
141
0.0
142
1.0
143
1.0
 70
  1712
 72
     0
 73
     0
 74
     0
  7

 75
     0
147
1.0
148
0.0
149
0.0
100
AcDbLayout
  1
Model
 70
     1
 71
     0
 10
0.0
 20
0.0
 11
12.0
 21
9.0
 12
0.0
 22
0.0
 32
0.0
 14
0.0
 24
0.0
 34
0.0
 15
0.0
 25
0.0
 35
0.0
146
0.0
 13
0.0
 23
0.0
 33
0.0
 16
1.0
 26
0.0
 36
0.0
 17
0.0
 27
1.0
 37
0.0
 76
     0
330
37
  0
MATERIAL
  5
12
102
{ACAD_XDICTIONARY
360
3D7
102
}
102
{ACAD_REACTORS
330
10
102
}
330
10
100
AcDbMaterial
  1
ByBlock
  0
MATERIAL
  5
11
102
{ACAD_XDICTIONARY
360
3D5
102
}
102
{ACAD_REACTORS
330
10
102
}
330
10
100
AcDbMaterial
  1
ByLayer
  0
MATERIAL
  5
13
102
{ACAD_XDICTIONARY
360
3D9
102
}
102
{ACAD_REACTORS
330
10
102
}
330
10
100
AcDbMaterial
  1
Global
  0
MLINESTYLE
  5
2D
102
{ACAD_REACTORS
330
2C
102
}
330
2C
100
AcDbMlineStyle
  2
STANDARD
 70
     0
  3

 62
   256
 51
90.0
 52
90.0
 71
     2
 49
0.5
 62
   256
  6
BYLAYER
 49
-0.5
 62
   256
  6
BYLAYER
  0
ACDBPLACEHOLDER
  5
F
102
{ACAD_REACTORS
330
E
102
}
330
E
  0
TABLESTYLE
  5
32
102
{ACAD_XDICTIONARY
360
3E9
102
}
102
{ACAD_REACTORS
330
31
102
}
330
31
100
AcDbTableStyle
  3
Standard
 70
     0
 71
     0
 40
0.06
 41
0.06
280
     0
281
     0
  7
Standard
140
0.18
170
     2
 62
     0
 63
     7
283
     0
274
    -2
284
     1
 64
     0
275
    -2
285
     1
 65
     0
276
    -2
286
     1
 66
     0
277
    -2
287
     1
 67
     0
278
    -2
288
     1
 68
     0
279
    -2
289
     1
 69
     0
  7
Standard
140
0.25
170
     5
 62
     0
 63
     7
283
     0
274
    -2
284
     1
 64
     0
275
    -2
285
     1
 65
     0
276
    -2
286
     1
 66
     0
277
    -2
287
     1
 67
     0
278
    -2
288
     1
 68
     0
279
    -2
289
     1
 69
     0
  7
Standard
140
0.18
170
     5
 62
     0
 63
     7
283
     0
274
    -2
284
     1
 64
     0
275
    -2
285
     1
 65
     0
276
    -2
286
     1
 66
     0
277
    -2
287
     1
 67
     0
278
    -2
288
     1
 68
     0
279
    -2
289
     1
 69
     0
  0
VISUALSTYLE
  5
1A
102
{ACAD_REACTORS
330
14
102
}
330
14
100
AcDbVisualStyle
  2
2dWireframe
 70
     4
 71
     0
 72
     2
 73
     0
 90
        0
 40
-0.6
 41
-30.0
 62
     5
 63
     7
 74
     1
 91
        4
 64
     7
 65
   257
 75
     1
175
     1
 42
1.0
 92
        0
 66
   257
 43
1.0
 76
     1
 77
     6
 78
     2
 67
     7
 79
     5
170
     0
171
     0
290
     0
174
     0
 93
        1
 44
0.0
173
     0
291
     0
 45
0.0
1001
ACAD
1000
AcDbSavedByObjectVersion
1070
     0
1000
AcDbSavedByObjectVersion
1070
     0
  0
VISUALSTYLE
  5
1C
102
{ACAD_REACTORS
330
14
102
}
330
14
100
AcDbVisualStyle
  2
3D Hidden
 70
     6
 71
     1
 72
     2
 73
     2
 90
        0
 40
-0.6
 41
-30.0
 62
     5
 63
     7
 74
     2
 91
        2
 64
     7
 65
   257
 75
     2
175
     1
 42
40.0
 92
        0
 66
   257
 43
1.0
 76
     1
 77
     6
 78
     2
 67
     7
 79
     3
170
     0
171
     0
290
     0
174
     0
 93
        1
 44
0.0
173
     0
291
     0
 45
0.0
1001
ACAD
1000
AcDbSavedByObjectVersion
1070
     0
1000
AcDbSavedByObjectVersion
1070
     0
  0
VISUALSTYLE
  5
1B
102
{ACAD_REACTORS
330
14
102
}
330
14
100
AcDbVisualStyle
  2
3dWireframe
 70
     5
 71
     0
 72
     2
 73
     0
 90
        0
 40
-0.6
 41
-30.0
 62
     5
 63
     7
 74
     1
 91
        4
 64
     7
 65
   257
 75
     1
175
     1
 42
1.0
 92
        0
 66
   257
 43
1.0
 76
     1
 77
     6
 78
     2
 67
     7
 79
     5
170
     0
171
     0
290
     0
174
     0
 93
        1
 44
0.0
173
     0
291
     0
 45
0.0
1001
ACAD
1000
AcDbSavedByObjectVersion
1070
     0
1000
AcDbSavedByObjectVersion
1070
     0
  0
VISUALSTYLE
  5
19
102
{ACAD_REACTORS
330
14
102
}
330
14
100
AcDbVisualStyle
  2
Basic
 70
     7
 71
     1
 72
     0
 73
     1
 90
        0
 40
-0.6
 41
-30.0
 62
     5
 63
     7
 74
     0
 91
        4
 64
     7
 65
   257
 75
     1
175
     1
 42
1.0
 92
        8
 66
     7
 43
1.0
 76
     1
 77
     6
 78
     2
 67
     7
 79
     5
170
     0
171
     0
290
     0
174
     0
 93
        1
 44
0.0
173
     0
291
     1
 45
0.0
1001
ACAD
1000
AcDbSavedByObjectVersion
1070
     0
1000
AcDbSavedByObjectVersion
1070
     0
  0
VISUALSTYLE
  5
20
102
{ACAD_REACTORS
330
14
102
}
330
14
100
AcDbVisualStyle
  2
Brighten
 70
    12
 71
     2
 72
     2
 73
     0
 90
        0
 40
-0.6
 41
-30.0
 62
     5
 63
     7
 74
     1
 91
        4
 64
     7
 65
   257
 75
     1
175
     1
 42
1.0
 92
        8
 66
     7
 43
1.0
 76
     1
 77
     6
 78
     2
 67
     7
 79
     5
170
     0
171
     0
290
     0
174
     0
 93
        1
 44
50.0
173
     0
291
     1
 45
0.0
1001
ACAD
1000
AcDbSavedByObjectVersion
1070
     0
1000
AcDbSavedByObjectVersion
1070
     0
  0
VISUALSTYLE
  5
24
102
{ACAD_REACTORS
330
14
102
}
330
14
100
AcDbVisualStyle
  2
ColorChange
 70
    16
 71
     2
 72
     2
 73
     3
 90
        0
 40
-0.6
 41
-30.0
 62
     5
 63
     8
 74
     1
 91
        4
 64
     7
 65
   257
 75
     1
175
     1
 42
1.0
 92
        8
 66
     8
 43
1.0
 76
     1
 77
     6
 78
     2
 67
     7
 79
     5
170
     0
171
     0
290
     0
174
     0
 93
        1
 44
0.0
173
     0
291
     1
 45
0.0
1001
ACAD
1000
AcDbSavedByObjectVersion
1070
     0
1000
AcDbSavedByObjectVersion
1070
     0
  0
VISUALSTYLE
  5
1D
102
{ACAD_REACTORS
330
14
102
}
330
14
100
AcDbVisualStyle
  2
Conceptual
 70
     9
 71
     3
 72
     2
 73
     0
 90
        0
 40
-0.6
 41
-30.0
 62
     5
 63
     7
 74
     2
 91
        2
 64
     7
 65
   257
 75
     1
175
     1
 42
40.0
 92
        8
 66
     7
 43
1.0
 76
     1
 77
     6
 78
     2
 67
     7
 79
     3
170
     0
171
     0
290
     0
174
     0
 93
        1
 44
0.0
173
     0
291
     0
 45
0.0
1001
ACAD
1000
AcDbSavedByObjectVersion
1070
     0
1000
AcDbSavedByObjectVersion
1070
     0
  0
VISUALSTYLE
  5
1F
102
{ACAD_REACTORS
330
14
102
}
330
14
100
AcDbVisualStyle
  2
Dim
 70
    11
 71
     2
 72
     2
 73
     0
 90
        0
 40
-0.6
 41
-30.0
 62
     5
 63
     7
 74
     1
 91
        4
 64
     7
 65
   257
 75
     1
175
     1
 42
1.0
 92
        8
 66
     7
 43
1.0
 76
     1
 77
     6
 78
     2
 67
     7
 79
     5
170
     0
171
     0
290
     0
174
     0
 93
        1
 44
-50.0
173
     0
291
     1
 45
0.0
1001
ACAD
1000
AcDbSavedByObjectVersion
1070
     0
1000
AcDbSavedByObjectVersion
1070
     0
  0
VISUALSTYLE
  5
23
102
{ACAD_REACTORS
330
14
102
}
330
14
100
AcDbVisualStyle
  2
Facepattern
 70
    15
 71
     2
 72
     2
 73
     0
 90
        0
 40
-0.6
 41
-30.0
 62
     5
 63
     7
 74
     1
 91
        4
 64
     7
 65
   257
 75
     1
175
     1
 42
1.0
 92
        8
 66
     7
 43
1.0
 76
     1
 77
     6
 78
     2
 67
     7
 79
     5
170
     0
171
     0
290
     0
174
     0
 93
        1
 44
0.0
173
     0
291
     1
 45
0.0
1001
ACAD
1000
AcDbSavedByObjectVersion
1070
     0
1000
AcDbSavedByObjectVersion
1070
     0
  0
VISUALSTYLE
  5
15
102
{ACAD_REACTORS
330
14
102
}
330
14
100
AcDbVisualStyle
  2
Flat
 70
     0
 71
     2
 72
     1
 73
     1
 90
        2
 40
-0.6
 41
30.0
 62
     5
 63
     7
 74
     0
 91
        4
 64
     7
 65
   257
 75
     1
175
     1
 42
1.0
 92
        8
 66
     7
 43
1.0
 76
     1
 77
     6
 78
     2
 67
     7
 79
     5
170
     0
171
     0
290
     0
174
     0
 93
       13
 44
0.0
173
     0
291
     1
 45
0.0
1001
ACAD
1000
AcDbSavedByObjectVersion
1070
     0
1000
AcDbSavedByObjectVersion
1070
     0
  0
VISUALSTYLE
  5
16
102
{ACAD_REACTORS
330
14
102
}
330
14
100
AcDbVisualStyle
  2
FlatWithEdges
 70
     1
 71
     2
 72
     1
 73
     1
 90
        2
 40
-0.6
 41
30.0
 62
     5
 63
     7
 74
     1
 91
        4
 64
     7
 65
   257
 75
     1
175
     1
 42
1.0
 92
        0
 66
   257
 43
1.0
 76
     1
 77
     6
 78
     2
 67
     7
 79
     5
170
     0
171
     0
290
     0
174
     0
 93
       13
 44
0.0
173
     0
291
     1
 45
0.0
1001
ACAD
1000
AcDbSavedByObjectVersion
1070
     0
1000
AcDbSavedByObjectVersion
1070
     0
  0
VISUALSTYLE
  5
17
102
{ACAD_REACTORS
330
14
102
}
330
14
100
AcDbVisualStyle
  2
Gouraud
 70
     2
 71
     2
 72
     2
 73
     1
 90
        2
 40
-0.6
 41
30.0
 62
     5
 63
     7
 74
     0
 91
        4
 64
     7
 65
   257
 75
     1
175
     1
 42
1.0
 92
        0
 66
     7
 43
1.0
 76
     1
 77
     6
 78
     2
 67
     7
 79
     5
170
     0
171
     0
290
     0
174
     0
 93
       13
 44
0.0
173
     0
291
     1
 45
0.0
1001
ACAD
1000
AcDbSavedByObjectVersion
1070
     0
1000
AcDbSavedByObjectVersion
1070
     0
  0
VISUALSTYLE
  5
18
102
{ACAD_REACTORS
330
14
102
}
330
14
100
AcDbVisualStyle
  2
GouraudWithEdges
 70
     3
 71
     2
 72
     2
 73
     1
 90
        2
 40
-0.6
 41
30.0
 62
     5
 63
     7
 74
     1
 91
        4
 64
     7
 65
   257
 75
     1
175
     1
 42
1.0
 92
        0
 66
   257
 43
1.0
 76
     1
 77
     6
 78
     2
 67
     7
 79
     5
170
     0
171
     0
290
     0
174
     0
 93
       13
 44
0.0
173
     0
291
     1
 45
0.0
1001
ACAD
1000
AcDbSavedByObjectVersion
1070
     0
1000
AcDbSavedByObjectVersion
1070
     0
  0
VISUALSTYLE
  5
22
102
{ACAD_REACTORS
330
14
102
}
330
14
100
AcDbVisualStyle
  2
Linepattern
 70
    14
 71
     2
 72
     2
 73
     0
 90
        0
 40
-0.6
 41
-30.0
 62
     5
 63
     7
 74
     1
 91
        4
 64
     7
 65
   257
 75
     7
175
     7
 42
1.0
 92
        8
 66
     7
 43
1.0
 76
     1
 77
     6
 78
     2
 67
     7
 79
     5
170
     0
171
     0
290
     0
174
     0
 93
        1
 44
0.0
173
     0
291
     1
 45
0.0
1001
ACAD
1000
AcDbSavedByObjectVersion
1070
     0
1000
AcDbSavedByObjectVersion
1070
     0
  0
VISUALSTYLE
  5
1E
102
{ACAD_REACTORS
330
14
102
}
330
14
100
AcDbVisualStyle
  2
Realistic
 70
     8
 71
     2
 72
     2
 73
     0
 90
        0
 40
-0.6
 41
-30.0
 62
     5
 63
     7
 74
     1
 91
        0
 64
     7
 65
   257
 75
     1
175
     1
 42
1.0
 92
        8
 66
     8
 43
1.0
 76
     1
 77
     6
 78
     2
 67
     7
 79
     5
170
     0
171
     0
290
     0
174
     0
 93
       13
 44
0.0
173
     0
291
     0
 45
0.0
1001
ACAD
1000
AcDbSavedByObjectVersion
1070
     0
1000
AcDbSavedByObjectVersion
1070
     0
  0
VISUALSTYLE
  5
21
102
{ACAD_REACTORS
330
14
102
}
330
14
100
AcDbVisualStyle
  2
Thicken
 70
    13
 71
     2
 72
     2
 73
     0
 90
        0
 40
-0.6
 41
-30.0
 62
     5
 63
     7
 74
     1
 91
        4
 64
     7
 65
   257
 75
     1
175
     1
 42
1.0
 92
       12
 66
     7
 43
1.0
 76
     1
 77
     6
 78
     2
 67
     7
 79
     5
170
     0
171
     0
290
     0
174
     0
 93
        1
 44
0.0
173
     0
291
     1
 45
0.0
1001
ACAD
1000
AcDbSavedByObjectVersion
1070
     0
1000
AcDbSavedByObjectVersion
1070
     0
  0
DICTIONARYVAR
  5
3CF
102
{ACAD_REACTORS
330
3CE
102
}
330
3CE
100
DictionaryVariables
280
     0
  1
STANDARD
  0
DICTIONARYVAR
  5
3D3
102
{ACAD_REACTORS
330
3CE
102
}
330
3CE
100
DictionaryVariables
280
     0
  1
1
  0
DICTIONARYVAR
  5
3D2
102
{ACAD_REACTORS
330
3CE
102
}
330
3CE
100
DictionaryVariables
280
     0
  1
1
  0
DICTIONARYVAR
  5
3D1
102
{ACAD_REACTORS
330
3CE
102
}
330
3CE
100
DictionaryVariables
280
     0
  1
0
  0
DICTIONARYVAR
  5
3D0
102
{ACAD_REACTORS
330
3CE
102
}
330
3CE
100
DictionaryVariables
280
     0
  1
127
  0
DICTIONARY
  5
3EB
330
36
100
AcDbDictionary
280
     1
281
     1
  3
ACAD_XREC_ROUNDTRIP
360
3EC
  0
DICTIONARY
  5
3EF
330
3E
100
AcDbDictionary
280
     1
281
     1
  3
ACAD_XREC_ROUNDTRIP
360
3F0
  0
DICTIONARY
  5
3ED
330
3A
100
AcDbDictionary
280
     1
281
     1
  3
ACAD_XREC_ROUNDTRIP
360
3EE
  0
DICTIONARY
  5
3D7
330
12
100
AcDbDictionary
280
     1
281
     1
  3
ACAD_XREC_ROUNDTRIP
360
3D8
  0
DICTIONARY
  5
3D5
330
11
100
AcDbDictionary
280
     1
281
     1
  3
ACAD_XREC_ROUNDTRIP
360
3D6
  0
DICTIONARY
  5
3D9
330
13
100
AcDbDictionary
280
     1
281
     1
  3
ACAD_XREC_ROUNDTRIP
360
3DA
  0
DICTIONARY
  5
3E9
330
32
100
AcDbDictionary
280
     1
281
     1
  3
ACAD_XREC_ROUNDTRIP
360
3EA
  0
XRECORD
  5
3EC
102
{ACAD_REACTORS
330
3EB
102
}
330
3EB
100
AcDbXrecord
280
     1
102
SHADEPLOT
 70
     0
102
SHADEPLOTRESLEVEL
 70
     2
102
SHADEPLOTCUSTOMDPI
 70
   300
  0
XRECORD
  5
3F0
102
{ACAD_REACTORS
330
3EF
102
}
330
3EF
100
AcDbXrecord
280
     1
102
SHADEPLOT
 70
     0
102
SHADEPLOTRESLEVEL
 70
     2
102
SHADEPLOTCUSTOMDPI
 70
   300
  0
XRECORD
  5
3EE
102
{ACAD_REACTORS
330
3ED
102
}
330
3ED
100
AcDbXrecord
280
     1
102
SHADEPLOT
 70
     0
102
SHADEPLOTRESLEVEL
 70
     2
102
SHADEPLOTCUSTOMDPI
 70
   300
  0
XRECORD
  5
3D8
102
{ACAD_REACTORS
330
3D7
102
}
330
3D7
100
AcDbXrecord
280
     1
102
MATERIAL
148
0.0
149
0.0
149
0.0
 93
        0
 94
       63
282
     0
 72
     1
 77
     1
171
     1
175
     1
179
     1
273
     0
  0
XRECORD
  5
3D6
102
{ACAD_REACTORS
330
3D5
102
}
330
3D5
100
AcDbXrecord
280
     1
102
MATERIAL
148
0.0
149
0.0
149
0.0
 93
        0
 94
       63
282
     0
 72
     1
 77
     1
171
     1
175
     1
179
     1
273
     0
  0
XRECORD
  5
3DA
102
{ACAD_REACTORS
330
3D9
102
}
330
3D9
100
AcDbXrecord
280
     1
102
MATERIAL
148
0.0
149
0.0
149
0.0
 93
        0
 94
       63
282
     0
 72
     1
 77
     1
171
     1
175
     1
179
     1
273
     0
  0
XRECORD
  5
3EA
102
{ACAD_REACTORS
330
3E9
102
}
330
3E9
100
AcDbXrecord
280
     1
102
ACAD_ROUNDTRIP_PRE2007_TABLESTYLE
 90
      512
 91
        0
  1

 92
      512
 93
        0
  2

 94
      512
 95
        0
  3

  0
ENDSEC
  0
EOF
