  0
SECTION
  2
HEADER
  9
$ACADVER
  1
AC1015
  9
$ACADMAINTVER
 70
    18
  9
$DWGCODEPAGE
  3
ANSI_1252
  9
$INSBASE
 10
0.0
 20
0.0
 30
0.0
  9
$EXTMIN
 10
0.0
 20
0.0
 30
0.0
  9
$EXTMAX
 10
4000.0
 20
2000.0
 30
0.0
  9
$LIMMIN
 10
0.0
 20
0.0
  9
$LIMMAX
 10
4000.0
 20
2000.0
  9
$ORTHOMODE
 70
     0
  9
$REGENMODE
 70
     1
  9
$FILLMODE
 70
     1
  9
$QTEXTMODE
 70
     0
  9
$MIRRTEXT
 70
     0
  9
$LTSCALE
 40
1.0
  9
$ATTMODE
 70
     1
  9
$TEXTSIZE
 40
0.2
  9
$TRACEWID
 40
0.05
  9
$TEXTSTYLE
  7
Standard
  9
$CLAYER
  8
0
  9
$CELTYPE
  6
ByLayer
  9
$CECOLOR
 62
   256
  9
$CELTSCALE
 40
1.0
  9
$DISPSILH
 70
     0
  9
$DIMSCALE
 40
1.0
  9
$DIMASZ
 40
1.799999999999999
  9
$DIMEXO
 40
0.0625
  9
$DIMDLI
 40
0.38
  9
$DIMRND
 40
0.0
  9
$DIMDLE
 40
0.0
  9
$DIMEXE
 40
0.18
  9
$DIMTP
 40
0.0
  9
$DIMTM
 40
0.0
  9
$DIMTXT
 40
0.3499999940395355
  9
$DIMCEN
 40
0.09
  9
$DIMTSZ
 40
0.0
  9
$DIMTOL
 70
     0
  9
$DIMLIM
 70
     0
  9
$DIMTIH
 70
     1
  9
$DIMTOH
 70
     1
  9
$DIMSE1
 70
     0
  9
$DIMSE2
 70
     0
  9
$DIMTAD
 70
     0
  9
$DIMZIN
 70
     0
  9
$DIMBLK
  1

  9
$DIMASO
 70
     1
  9
$DIMSHO
 70
     1
  9
$DIMPOST
  1

  9
$DIMAPOST
  1

  9
$DIMALT
 70
     0
  9
$DIMALTD
 70
     2
  9
$DIMALTF
 40
25.4
  9
$DIMLFAC
 40
1.0
  9
$DIMTOFL
 70
     0
  9
$DIMTVP
 40
0.0
  9
$DIMTIX
 70
     0
  9
$DIMSOXD
 70
     0
  9
$DIMSAH
 70
     0
  9
$DIMBLK1
  1

  9
$DIMBLK2
  1

  9
$DIMSTYLE
  2
Standard
  9
$DIMCLRD
 70
     0
  9
$DIMCLRE
 70
     0
  9
$DIMCLRT
 70
     0
  9
$DIMTFAC
 40
1.0
  9
$DIMGAP
 40
0.09
  9
$DIMJUST
 70
     0
  9
$DIMSD1
 70
     0
  9
$DIMSD2
 70
     0
  9
$DIMTOLJ
 70
     1
  9
$DIMTZIN
 70
     0
  9
$DIMALTZ
 70
     0
  9
$DIMALTTZ
 70
     0
  9
$DIMUPT
 70
     0
  9
$DIMDEC
 70
     4
  9
$DIMTDEC
 70
     4
  9
$DIMALTU
 70
     2
  9
$DIMALTTD
 70
     2
  9
$DIMTXSTY
  7
Standard
  9
$DIMAUNIT
 70
     0
  9
$DIMADEC
 70
     0
  9
$DIMALTRND
 40
0.0
  9
$DIMAZIN
 70
     0
  9
$DIMDSEP
 70
    46
  9
$DIMATFIT
 70
     3
  9
$DIMFRAC
 70
     0
  9
$DIMLDRBLK
  1

  9
$DIMLUNIT
 70
     2
  9
$DIMLWD
 70
    -2
  9
$DIMLWE
 70
    -2
  9
$DIMTMOVE
 70
     0
  9
$LUNITS
 70
     2
  9
$LUPREC
 70
     4
  9
$SKETCHINC
 40
0.1
  9
$FILLETRAD
 40
0.0
  9
$AUNITS
 70
     0
  9
$AUPREC
 70
     0
  9
$MENU
  1
.
  9
$ELEVATION
 40
0.0
  9
$PELEVATION
 40
0.0
  9
$THICKNESS
 40
0.0
  9
$LIMCHECK
 70
     0
  9
$CHAMFERA
 40
0.0
  9
$CHAMFERB
 40
0.0
  9
$CHAMFERC
 40
0.0
  9
$CHAMFERD
 40
0.0
  9
$SKPOLY
 70
     0
  9
$TDCREATE
 40
2454089.403482824
  9
$TDUCREATE
 40
2454089.361816158
  9
$TDUPDATE
 40
2454089.403482824
  9
$TDUUPDATE
 40
2454089.361816158
  9
$TDINDWG
 40
0.0000498495
  9
$TDUSRTIMER
 40
0.0000498495
  9
$USRTIMER
 70
     1
  9
$ANGBASE
 50
0.0
  9
$ANGDIR
 70
     0
  9
$PDMODE
 70
     0
  9
$PDSIZE
 40
0.0
  9
$PLINEWID
 40
0.0
  9
$SPLFRAME
 70
     0
  9
$SPLINETYPE
 70
     6
  9
$SPLINESEGS
 70
     8
  9
$HANDSEED
  5
437
  9
$SURFTAB1
 70
     6
  9
$SURFTAB2
 70
     6
  9
$SURFTYPE
 70
     6
  9
$SURFU
 70
     6
  9
$SURFV
 70
     6
  9
$UCSBASE
  2

  9
$UCSNAME
  2

  9
$UCSORG
 10
0.0
 20
0.0
 30
0.0
  9
$UCSXDIR
 10
1.0
 20
0.0
 30
0.0
  9
$UCSYDIR
 10
0.0
 20
1.0
 30
0.0
  9
$UCSORTHOREF
  2

  9
$UCSORTHOVIEW
 70
     0
  9
$UCSORGTOP
 10
0.0
 20
0.0
 30
0.0
  9
$UCSORGBOTTOM
 10
0.0
 20
0.0
 30
0.0
  9
$UCSORGLEFT
 10
0.0
 20
0.0
 30
0.0
  9
$UCSORGRIGHT
 10
0.0
 20
0.0
 30
0.0
  9
$UCSORGFRONT
 10
0.0
 20
0.0
 30
0.0
  9
$UCSORGBACK
 10
0.0
 20
0.0
 30
0.0
  9
$PUCSBASE
  2

  9
$PUCSNAME
  2

  9
$PUCSORG
 10
0.0
 20
0.0
 30
0.0
  9
$PUCSXDIR
 10
1.0
 20
0.0
 30
0.0
  9
$PUCSYDIR
 10
0.0
 20
1.0
 30
0.0
  9
$PUCSORTHOREF
  2

  9
$PUCSORTHOVIEW
 70
     0
  9
$PUCSORGTOP
 10
0.0
 20
0.0
 30
0.0
  9
$PUCSORGBOTTOM
 10
0.0
 20
0.0
 30
0.0
  9
$PUCSORGLEFT
 10
0.0
 20
0.0
 30
0.0
  9
$PUCSORGRIGHT
 10
0.0
 20
0.0
 30
0.0
  9
$PUCSORGFRONT
 10
0.0
 20
0.0
 30
0.0
  9
$PUCSORGBACK
 10
0.0
 20
0.0
 30
0.0
  9
$USERI1
 70
     0
  9
$USERI2
 70
     0
  9
$USERI3
 70
     0
  9
$USERI4
 70
     0
  9
$USERI5
 70
     0
  9
$USERR1
 40
0.0
  9
$USERR2
 40
0.0
  9
$USERR3
 40
0.0
  9
$USERR4
 40
0.0
  9
$USERR5
 40
0.0
  9
$WORLDVIEW
 70
     1
  9
$SHADEDGE
 70
     3
  9
$SHADEDIF
 70
    70
  9
$TILEMODE
 70
     1
  9
$MAXACTVP
 70
    64
  9
$PINSBASE
 10
0.0
 20
0.0
 30
0.0
  9
$PLIMCHECK
 70
     0
  9
$PEXTMIN
 10
0.0
 20
0.0
 30
0.0
  9
$PEXTMAX
 10
4000.0
 20
2000.0
 30
0.0
  9
$PLIMMIN
 10
0.0
 20
0.0
  9
$PLIMMAX
 10
4000.0
 20
2000.0
  9
$UNITMODE
 70
     0
  9
$VISRETAIN
 70
     1
  9
$PLINEGEN
 70
     0
  9
$PSLTSCALE
 70
     1
  9
$TREEDEPTH
 70
  3020
  9
$CMLSTYLE
  2
Standard
  9
$CMLJUST
 70
     0
  9
$CMLSCALE
 40
1.0
  9
$PROXYGRAPHICS
 70
     1
  9
$MEASUREMENT
 70
     1
  9
$CELWEIGHT
370
    -1
  9
$ENDCAPS
280
     0
  9
$JOINSTYLE
280
     0
  9
$LWDISPLAY
290
     0
  9
$INSUNITS
 70
     0
  9
$HYPERLINKBASE
  1

  9
$STYLESHEET
  1

  9
$XEDIT
290
     1
  9
$CEPSNTYPE
380
     0
  9
$PSTYLEMODE
290
     1
  9
$FINGERPRINTGUID
  2
{BB64F37C-362D-4209-9825-5AA9EFDC08EA}
  9
$VERSIONGUID
  2
{91C487F4-54B7-4AE5-91BA-4BF9E4E36832}
  9
$EXTNAMES
290
     1
  9
$PSVPSCALE
 40
0.0
  9
$OLESTARTUP
290
     0
  0
ENDSEC
  0
SECTION
  2
CLASSES
  0
CLASS
  1
ACDBDICTIONARYWDFLT
  2
AcDbDictionaryWithDefault
  3
ObjectDBX Classes
 90
        0
280
     0
281
     0
  0
CLASS
  1
MATERIAL
  2
AcDbMaterial
  3
ObjectDBX Classes
 90
     1024
280
     0
281
     0
  0
CLASS
  1
VISUALSTYLE
  2
AcDbVisualStyle
  3
ObjectDBX Classes
 90
     4095
280
     0
281
     0
  0
CLASS
  1
TABLESTYLE
  2
AcDbTableStyle
  3
ObjectDBX Classes
 90
     4095
280
     0
281
     0
  0
CLASS
  1
DICTIONARYVAR
  2
AcDbDictionaryVar
  3
ObjectDBX Classes
 90
        0
280
     0
281
     0
  0
CLASS
  1
ACDBPLACEHOLDER
  2
AcDbPlaceHolder
  3
ObjectDBX Classes
 90
        0
280
     0
281
     0
  0
CLASS
  1
LAYOUT
  2
AcDbLayout
  3
ObjectDBX Classes
 90
        0
280
     0
281
     0
  0
ENDSEC
  0
SECTION
  2
TABLES
  0
TABLE
  2
VPORT
  5
8
330
0
100
AcDbSymbolTable
 70
     1
  0
VPORT
  5
28
330
8
100
AcDbSymbolTableRecord
100
AcDbViewportTableRecord
  2
*Active
 70
     0
 10
0.0
 20
0.0
 11
1.0
 21
1.0
 12
2000.0
 22
1000.0
 13
0.0
 23
0.0
 14
1.0
 24
1.0
 15
0.0
 25
0.0
 16
0.0
 26
0.0
 36
1.0
 17
0.0
 27
0.0
 37
0.0
 40
2000.0
 41
2.0
 42
50.0
 43
0.0
 44
0.0
 50
0.0
 51
0.0
 71
     0
 72
   100
 73
     1
 74
     1
 75
     0
 76
     0
 77
     0
 78
     0
281
     0
 65
     1
110
0.0
120
0.0
130
0.0
111
1.0
121
0.0
131
0.0
112
0.0
122
1.0
132
0.0
 79
     0
146
0.0
  0
ENDTAB
  0
TABLE
  2
LTYPE
  5
5
330
0
100
AcDbSymbolTable
 70
    59
  0
LTYPE
  5
29
330
5
100
AcDbSymbolTableRecord
100
AcDbLinetypeTableRecord
  2
ByBlock
 70
     0
  3

 72
    65
 73
     0
 40
0.0
  0
LTYPE
  5
2A
330
5
100
AcDbSymbolTableRecord
100
AcDbLinetypeTableRecord
  2
ByLayer
 70
     0
  3

 72
    65
 73
     0
 40
0.0
  0
LTYPE
  5
2B
330
5
100
AcDbSymbolTableRecord
100
AcDbLinetypeTableRecord
  2
Continuous
 70
     0
  3
Solid line
 72
    65
 73
     0
 40
0.0
  0
LTYPE
  5
40
330
5
100
AcDbSymbolTableRecord
100
AcDbLinetypeTableRecord
  2
Section_View_Lines
 70
     0
  3
Section View Lines
 72
    65
 73
     4
 40
0.8406
 49
0.6614
 74
     0
 49
-0.0827
 74
     0
 49
0.0138
 74
     0
 49
-0.0827
 74
     0
  0
LTYPE
  5
41
330
5
100
AcDbSymbolTableRecord
100
AcDbLinetypeTableRecord
  2
CHAIN
 70
     0
  3
Chain ____ _ ____ _ ____ _ ____ _ ____ _ ____
 72
    65
 73
     4
 40
0.3543
 49
0.2362
 74
     0
 49
-0.0295
 74
     0
 49
0.0591
 74
     0
 49
-0.0295
 74
     0
  0
LTYPE
  5
42
330
5
100
AcDbSymbolTableRecord
100
AcDbLinetypeTableRecord
  2
DASH_DOT
 70
     0
  3
Dash dot _._._._._._._._._._._._._._._.
 72
    65
 73
     4
 40
0.37
 49
0.24
 74
     0
 49
-0.06
 74
     0
 49
0.01
 74
     0
 49
-0.06
 74
     0
  0
LTYPE
  5
43
330
5
100
AcDbSymbolTableRecord
100
AcDbLinetypeTableRecord
  2
DASH_DOUBLE_DOT
 70
     0
  3
Dash Double Dot __ __ . __ __ . __ __ . __ _
 72
    65
 73
     6
 40
0.4398000000000001
 49
0.24
 74
     0
 49
-0.06
 74
     0
 49
0.0098
 74
     0
 49
-0.06
 74
     0
 49
0.01
 74
     0
 49
-0.06
 74
     0
  0
LTYPE
  5
44
330
5
100
AcDbSymbolTableRecord
100
AcDbLinetypeTableRecord
  2
DASH_TRIPLE_DOT
 70
     0
  3
Dash Triple-Dot _ . . . _ . . . _ . . . _
 72
    65
 73
     8
 40
0.51
 49
0.24
 74
     0
 49
-0.06
 74
     0
 49
0.01
 74
     0
 49
-0.06
 74
     0
 49
0.01
 74
     0
 49
-0.06
 74
     0
 49
0.01
 74
     0
 49
-0.06
 74
     0
  0
LTYPE
  5
45
330
5
100
AcDbSymbolTableRecord
100
AcDbLinetypeTableRecord
  2
DASHED
 70
     0
  3
Dashed __ __ __ __ __ __ __ __ __ __ __ __ __ _
 72
    65
 73
     2
 40
0.2067
 49
0.1654
 74
     0
 49
-0.0413
 74
     0
  0
LTYPE
  5
46
330
5
100
AcDbSymbolTableRecord
100
AcDbLinetypeTableRecord
  2
DASHED_SPACE
 70
     0
  3
Dashed Space _._._._._._._._._._._._._._._.
 72
    65
 73
     2
 40
0.2067
 49
0.1654
 74
     0
 49
-0.0413
 74
     0
  0
LTYPE
  5
47
330
5
100
AcDbSymbolTableRecord
100
AcDbLinetypeTableRecord
  2
DOTTED
 70
     0
  3
Dotted . . . . . . . . . . . . . . . . . . . . 
 72
    65
 73
     2
 40
0.0482
 49
0.0069
 74
     0
 49
-0.0413
 74
     0
  0
LTYPE
  5
48
330
5
100
AcDbSymbolTableRecord
100
AcDbLinetypeTableRecord
  2
DOUBLE_DASH_CHAIN
 70
     0
  3
Double Dash Chain ___ _ _ ___ _ _ ___ _ _ ___ _
 72
    65
 73
     6
 40
1.240299999999998
 49
0.6614
 74
     0
 49
-0.0827
 74
     0
 49
0.1654
 74
     0
 49
-0.0827
 74
     0
 49
0.1654
 74
     0
 49
-0.0827
 74
     0
  0
LTYPE
  5
49
330
5
100
AcDbSymbolTableRecord
100
AcDbLinetypeTableRecord
  2
DOUBLE_DASH_DOT
 70
     0
  3
Double Dash Dot __ __ . __ __ . __ __ . __ _
 72
    65
 73
     6
 40
0.6700000000000001
 49
0.24
 74
     0
 49
-0.06
 74
     0
 49
0.24
 74
     0
 49
-0.06
 74
     0
 49
0.01
 74
     0
 49
-0.06
 74
     0
  0
LTYPE
  5
4A
330
5
100
AcDbSymbolTableRecord
100
AcDbLinetypeTableRecord
  2
DOUBLE_DASH_DOUBLE_DOT
 70
     0
  3
Double-dash double-dot _ _ . . _ _ . . _
 72
    65
 73
     8
 40
0.7400000000000002
 49
0.24
 74
     0
 49
-0.06
 74
     0
 49
0.24
 74
     0
 49
-0.06
 74
     0
 49
0.01
 74
     0
 49
-0.06
 74
     0
 49
0.01
 74
     0
 49
-0.06
 74
     0
  0
LTYPE
  5
4B
330
5
100
AcDbSymbolTableRecord
100
AcDbLinetypeTableRecord
  2
DOUBLE_DASH_TRIPLE_DOT
 70
     0
  3
Double Dash Triple Dot __ __ . . . __ __ . . .
 72
    65
 73
    10
 40
0.8100000000000001
 49
0.24
 74
     0
 49
-0.06
 74
     0
 49
0.24
 74
     0
 49
-0.06
 74
     0
 49
0.01
 74
     0
 49
-0.06
 74
     0
 49
0.01
 74
     0
 49
-0.06
 74
     0
 49
0.01
 74
     0
 49
-0.06
 74
     0
  0
LTYPE
  5
4C
330
5
100
AcDbSymbolTableRecord
100
AcDbLinetypeTableRecord
  2
LONG_DASH_DOTTED
 70
     0
  3
Long-Dash Dot ____ . ____ . ____ . ____ . _
 72
    65
 73
     4
 40
0.3001
 49
0.2362
 74
     0
 49
-0.0295
 74
     0
 49
0.0049
 74
     0
 49
-0.0295
 74
     0
  0
LTYPE
  5
4D
330
5
100
AcDbSymbolTableRecord
100
AcDbLinetypeTableRecord
  2
LONG_DASH_DOUBLE_DOT
 70
     0
  3
Long Dash Double Dot ____ . . ____ . . ____ . .
 72
    65
 73
     6
 40
0.3345
 49
0.2362
 74
     0
 49
-0.0295
 74
     0
 49
0.0049
 74
     0
 49
-0.0295
 74
     0
 49
0.0049
 74
     0
 49
-0.0295
 74
     0
  0
LTYPE
  5
4E
330
5
100
AcDbSymbolTableRecord
100
AcDbLinetypeTableRecord
  2
LONG_DASH_TRIPLE_DOT
 70
     0
  3
Long Dash Triple Dot ____ ... ____ ... ____
 72
    65
 73
     8
 40
0.75
 49
0.48
 74
     0
 49
-0.06
 74
     0
 49
0.01
 74
     0
 49
-0.06
 74
     0
 49
0.01
 74
     0
 49
-0.06
 74
     0
 49
0.01
 74
     0
 49
-0.06
 74
     0
  0
LTYPE
  5
4F
330
5
100
AcDbSymbolTableRecord
100
AcDbLinetypeTableRecord
  2
BORDER
 70
     0
  3
Border __ __ . __ __ . __ __ . __ __ . __ __ .
 72
    65
 73
     6
 40
44.45
 49
12.7
 74
     0
 49
-6.349999999999998
 74
     0
 49
12.7
 74
     0
 49
-6.349999999999998
 74
     0
 49
0.0
 74
     0
 49
-6.349999999999998
 74
     0
  0
LTYPE
  5
50
330
5
100
AcDbSymbolTableRecord
100
AcDbLinetypeTableRecord
  2
BORDER2
 70
     0
  3
Border (.5x) __.__.__.__.__.__.__.__.__.__.__.
 72
    65
 73
     6
 40
22.225
 49
6.349999999999998
 74
     0
 49
-3.174999999999998
 74
     0
 49
6.349999999999998
 74
     0
 49
-3.174999999999998
 74
     0
 49
0.0
 74
     0
 49
-3.174999999999998
 74
     0
  0
LTYPE
  5
51
330
5
100
AcDbSymbolTableRecord
100
AcDbLinetypeTableRecord
  2
BORDERX2
 70
     0
  3
Border (2x) ____  ____  .  ____  ____  .  ___
 72
    65
 73
     6
 40
88.9
 49
25.4
 74
     0
 49
-12.7
 74
     0
 49
25.4
 74
     0
 49
-12.7
 74
     0
 49
0.0
 74
     0
 49
-12.7
 74
     0
  0
LTYPE
  5
52
330
5
100
AcDbSymbolTableRecord
100
AcDbLinetypeTableRecord
  2
CENTER
 70
     0
  3
Center ____ _ ____ _ ____ _ ____ _ ____ _ ____
 72
    65
 73
     4
 40
50.8
 49
31.75
 74
     0
 49
-6.349999999999998
 74
     0
 49
6.349999999999998
 74
     0
 49
-6.349999999999998
 74
     0
  0
LTYPE
  5
53
330
5
100
AcDbSymbolTableRecord
100
AcDbLinetypeTableRecord
  2
CENTER2
 70
     0
  3
Center (.5x) ___ _ ___ _ ___ _ ___ _ ___ _ ___
 72
    65
 73
     4
 40
28.575
 49
19.05
 74
     0
 49
-3.174999999999998
 74
     0
 49
3.174999999999998
 74
     0
 49
-3.174999999999998
 74
     0
  0
LTYPE
  5
54
330
5
100
AcDbSymbolTableRecord
100
AcDbLinetypeTableRecord
  2
CENTERX2
 70
     0
  3
Center (2x) ________  __  ________  __  _____
 72
    65
 73
     4
 40
101.6
 49
63.5
 74
     0
 49
-12.7
 74
     0
 49
12.7
 74
     0
 49
-12.7
 74
     0
  0
LTYPE
  5
55
330
5
100
AcDbSymbolTableRecord
100
AcDbLinetypeTableRecord
  2
DASHDOT2
 70
     0
  3
Dash dot (.5x) _._._._._._._._._._._._._._._.
 72
    65
 73
     4
 40
12.7
 49
6.349999999999998
 74
     0
 49
-3.174999999999998
 74
     0
 49
0.0
 74
     0
 49
-3.174999999999998
 74
     0
  0
LTYPE
  5
56
330
5
100
AcDbSymbolTableRecord
100
AcDbLinetypeTableRecord
  2
DASHDOTX2
 70
     0
  3
Dash dot (2x) ____  .  ____  .  ____  .  ___
 72
    65
 73
     4
 40
50.8
 49
25.4
 74
     0
 49
-12.7
 74
     0
 49
0.0
 74
     0
 49
-12.7
 74
     0
  0
LTYPE
  5
57
330
5
100
AcDbSymbolTableRecord
100
AcDbLinetypeTableRecord
  2
DASHED2
 70
     0
  3
Dashed (.5x) _ _ _ _ _ _ _ _ _ _ _ _ _ _ _ _ _
 72
    65
 73
     2
 40
9.524999999999996
 49
6.349999999999998
 74
     0
 49
-3.174999999999998
 74
     0
  0
LTYPE
  5
58
330
5
100
AcDbSymbolTableRecord
100
AcDbLinetypeTableRecord
  2
DASHEDX2
 70
     0
  3
Dashed (2x) ____  ____  ____  ____  ____  ___
 72
    65
 73
     2
 40
38.1
 49
25.4
 74
     0
 49
-12.7
 74
     0
  0
LTYPE
  5
59
330
5
100
AcDbSymbolTableRecord
100
AcDbLinetypeTableRecord
  2
DIVIDE
 70
     0
  3
Divide ____ . . ____ . . ____ . . ____ . . ____
 72
    65
 73
     6
 40
31.75
 49
12.7
 74
     0
 49
-6.349999999999998
 74
     0
 49
0.0
 74
     0
 49
-6.349999999999998
 74
     0
 49
0.0
 74
     0
 49
-6.349999999999998
 74
     0
  0
LTYPE
  5
5A
330
5
100
AcDbSymbolTableRecord
100
AcDbLinetypeTableRecord
  2
DIVIDE2
 70
     0
  3
Divide (.5x) __..__..__..__..__..__..__..__.._
 72
    65
 73
     6
 40
15.875
 49
6.349999999999998
 74
     0
 49
-3.174999999999998
 74
     0
 49
0.0
 74
     0
 49
-3.174999999999998
 74
     0
 49
0.0
 74
     0
 49
-3.174999999999998
 74
     0
  0
LTYPE
  5
5B
330
5
100
AcDbSymbolTableRecord
100
AcDbLinetypeTableRecord
  2
DIVIDEX2
 70
     0
  3
Divide (2x) ________  .  .  ________  .  .  _
 72
    65
 73
     6
 40
63.49999999999999
 49
25.4
 74
     0
 49
-12.7
 74
     0
 49
0.0
 74
     0
 49
-12.7
 74
     0
 49
0.0
 74
     0
 49
-12.7
 74
     0
  0
LTYPE
  5
5C
330
5
100
AcDbSymbolTableRecord
100
AcDbLinetypeTableRecord
  2
DOT
 70
     0
  3
Dot . . . . . . . . . . . . . . . . . . . . . .
 72
    65
 73
     2
 40
6.349999999999998
 49
0.0
 74
     0
 49
-6.349999999999998
 74
     0
  0
LTYPE
  5
5D
330
5
100
AcDbSymbolTableRecord
100
AcDbLinetypeTableRecord
  2
DOT2
 70
     0
  3
Dot (.5x) .....................................
 72
    65
 73
     2
 40
3.174999999999998
 49
0.0
 74
     0
 49
-3.174999999999998
 74
     0
  0
LTYPE
  5
5E
330
5
100
AcDbSymbolTableRecord
100
AcDbLinetypeTableRecord
  2
DOTX2
 70
     0
  3
Dot (2x) .  .  .  .  .  .  .  .  .  .  .  .  . 
 72
    65
 73
     2
 40
12.7
 49
0.0
 74
     0
 49
-12.7
 74
     0
  0
LTYPE
  5
5F
330
5
100
AcDbSymbolTableRecord
100
AcDbLinetypeTableRecord
  2
HIDDEN
 70
     0
  3
Hidden __ __ __ __ __ __ __ __ __ __ __ __ __ _
 72
    65
 73
     2
 40
9.524999999999996
 49
6.349999999999998
 74
     0
 49
-3.174999999999998
 74
     0
  0
LTYPE
  5
60
330
5
100
AcDbSymbolTableRecord
100
AcDbLinetypeTableRecord
  2
HIDDEN2
 70
     0
  3
Hidden (.5x) _ _ _ _ _ _ _ _ _ _ _ _ _ _ _ _ _
 72
    65
 73
     2
 40
4.762499999999998
 49
3.174999999999998
 74
     0
 49
-1.587499999999999
 74
     0
  0
LTYPE
  5
61
330
5
100
AcDbSymbolTableRecord
100
AcDbLinetypeTableRecord
  2
HIDDENX2
 70
     0
  3
Hidden (2x) ____ ____ ____ ____ ____ ____ ____
 72
    65
 73
     2
 40
19.05
 49
12.7
 74
     0
 49
-6.349999999999998
 74
     0
  0
LTYPE
  5
62
330
5
100
AcDbSymbolTableRecord
100
AcDbLinetypeTableRecord
  2
PHANTOM
 70
     0
  3
Phantom ______  __  __  ______  __  __  ______
 72
    65
 73
     6
 40
63.5
 49
31.75
 74
     0
 49
-6.349999999999998
 74
     0
 49
6.349999999999998
 74
     0
 49
-6.349999999999998
 74
     0
 49
6.349999999999998
 74
     0
 49
-6.349999999999998
 74
     0
  0
LTYPE
  5
63
330
5
100
AcDbSymbolTableRecord
100
AcDbLinetypeTableRecord
  2
PHANTOM2
 70
     0
  3
Phantom (.5x) ___ _ _ ___ _ _ ___ _ _ ___ _ _
 72
    65
 73
     6
 40
31.75
 49
15.875
 74
     0
 49
-3.174999999999998
 74
     0
 49
3.174999999999998
 74
     0
 49
-3.174999999999998
 74
     0
 49
3.174999999999998
 74
     0
 49
-3.174999999999998
 74
     0
  0
LTYPE
  5
64
330
5
100
AcDbSymbolTableRecord
100
AcDbLinetypeTableRecord
  2
PHANTOMX2
 70
     0
  3
Phantom (2x) ____________    ____    ____   _
 72
    65
 73
     6
 40
127.0
 49
63.5
 74
     0
 49
-12.7
 74
     0
 49
12.7
 74
     0
 49
-12.7
 74
     0
 49
12.7
 74
     0
 49
-12.7
 74
     0
  0
LTYPE
  5
65
330
5
100
AcDbSymbolTableRecord
100
AcDbLinetypeTableRecord
  2
ACAD_ISO02W100
 70
     0
  3
ISO dash __ __ __ __ __ __ __ __ __ __ __ __ __
 72
    65
 73
     2
 40
15.0
 49
12.0
 74
     0
 49
-3.0
 74
     0
  0
LTYPE
  5
66
330
5
100
AcDbSymbolTableRecord
100
AcDbLinetypeTableRecord
  2
ACAD_ISO03W100
 70
     0
  3
ISO dash space __    __    __    __    __    __
 72
    65
 73
     2
 40
30.0
 49
12.0
 74
     0
 49
-18.0
 74
     0
  0
LTYPE
  5
67
330
5
100
AcDbSymbolTableRecord
100
AcDbLinetypeTableRecord
  2
ACAD_ISO04W100
 70
     0
  3
ISO long-dash dot ____ . ____ . ____ . ____ . _
 72
    65
 73
     4
 40
30.0
 49
24.0
 74
     0
 49
-3.0
 74
     0
 49
0.0
 74
     0
 49
-3.0
 74
     0
  0
LTYPE
  5
68
330
5
100
AcDbSymbolTableRecord
100
AcDbLinetypeTableRecord
  2
ACAD_ISO05W100
 70
     0
  3
ISO long-dash double-dot ____ .. ____ .. ____ .
 72
    65
 73
     6
 40
33.0
 49
24.0
 74
     0
 49
-3.0
 74
     0
 49
0.0
 74
     0
 49
-3.0
 74
     0
 49
0.0
 74
     0
 49
-3.0
 74
     0
  0
LTYPE
  5
69
330
5
100
AcDbSymbolTableRecord
100
AcDbLinetypeTableRecord
  2
ACAD_ISO06W100
 70
     0
  3
ISO long-dash triple-dot ____ ... ____ ... ____
 72
    65
 73
     8
 40
36.0
 49
24.0
 74
     0
 49
-3.0
 74
     0
 49
0.0
 74
     0
 49
-3.0
 74
     0
 49
0.0
 74
     0
 49
-3.0
 74
     0
 49
0.0
 74
     0
 49
-3.0
 74
     0
  0
LTYPE
  5
6A
330
5
100
AcDbSymbolTableRecord
100
AcDbLinetypeTableRecord
  2
ACAD_ISO07W100
 70
     0
  3
ISO dot . . . . . . . . . . . . . . . . . . . .
 72
    65
 73
     2
 40
3.0
 49
0.0
 74
     0
 49
-3.0
 74
     0
  0
LTYPE
  5
6B
330
5
100
AcDbSymbolTableRecord
100
AcDbLinetypeTableRecord
  2
ACAD_ISO08W100
 70
     0
  3
ISO long-dash short-dash ____ __ ____ __ ____ _
 72
    65
 73
     4
 40
36.0
 49
24.0
 74
     0
 49
-3.0
 74
     0
 49
6.0
 74
     0
 49
-3.0
 74
     0
  0
LTYPE
  5
6C
330
5
100
AcDbSymbolTableRecord
100
AcDbLinetypeTableRecord
  2
ACAD_ISO09W100
 70
     0
  3
ISO long-dash double-short-dash ____ __ __ ____
 72
    65
 73
     6
 40
45.0
 49
24.0
 74
     0
 49
-3.0
 74
     0
 49
6.0
 74
     0
 49
-3.0
 74
     0
 49
6.0
 74
     0
 49
-3.0
 74
     0
  0
LTYPE
  5
6D
330
5
100
AcDbSymbolTableRecord
100
AcDbLinetypeTableRecord
  2
ACAD_ISO10W100
 70
     0
  3
ISO dash dot __ . __ . __ . __ . __ . __ . __ .
 72
    65
 73
     4
 40
18.0
 49
12.0
 74
     0
 49
-3.0
 74
     0
 49
0.0
 74
     0
 49
-3.0
 74
     0
  0
LTYPE
  5
6E
330
5
100
AcDbSymbolTableRecord
100
AcDbLinetypeTableRecord
  2
ACAD_ISO11W100
 70
     0
  3
ISO double-dash dot __ __ . __ __ . __ __ . __ 
 72
    65
 73
     6
 40
33.0
 49
12.0
 74
     0
 49
-3.0
 74
     0
 49
12.0
 74
     0
 49
-3.0
 74
     0
 49
0.0
 74
     0
 49
-3.0
 74
     0
  0
LTYPE
  5
6F
330
5
100
AcDbSymbolTableRecord
100
AcDbLinetypeTableRecord
  2
ACAD_ISO12W100
 70
     0
  3
ISO dash double-dot __ . . __ . . __ . . __ . .
 72
    65
 73
     6
 40
21.0
 49
12.0
 74
     0
 49
-3.0
 74
     0
 49
0.0
 74
     0
 49
-3.0
 74
     0
 49
0.0
 74
     0
 49
-3.0
 74
     0
  0
LTYPE
  5
70
330
5
100
AcDbSymbolTableRecord
100
AcDbLinetypeTableRecord
  2
ACAD_ISO13W100
 70
     0
  3
ISO double-dash double-dot __ __ . . __ __ . . 
 72
    65
 73
     8
 40
36.0
 49
12.0
 74
     0
 49
-3.0
 74
     0
 49
12.0
 74
     0
 49
-3.0
 74
     0
 49
0.0
 74
     0
 49
-3.0
 74
     0
 49
0.0
 74
     0
 49
-3.0
 74
     0
  0
LTYPE
  5
71
330
5
100
AcDbSymbolTableRecord
100
AcDbLinetypeTableRecord
  2
ACAD_ISO14W100
 70
     0
  3
ISO dash triple-dot __ . . . __ . . . __ . . . 
 72
    65
 73
     8
 40
24.0
 49
12.0
 74
     0
 49
-3.0
 74
     0
 49
0.0
 74
     0
 49
-3.0
 74
     0
 49
0.0
 74
     0
 49
-3.0
 74
     0
 49
0.0
 74
     0
 49
-3.0
 74
     0
  0
LTYPE
  5
72
330
5
100
AcDbSymbolTableRecord
100
AcDbLinetypeTableRecord
  2
ACAD_ISO15W100
 70
     0
  3
ISO double-dash triple-dot __ __ . . . __ __ . 
 72
    65
 73
    10
 40
39.0
 49
12.0
 74
     0
 49
-3.0
 74
     0
 49
12.0
 74
     0
 49
-3.0
 74
     0
 49
0.0
 74
     0
 49
-3.0
 74
     0
 49
0.0
 74
     0
 49
-3.0
 74
     0
 49
0.0
 74
     0
 49
-3.0
 74
     0
  0
LTYPE
  5
75
330
5
100
AcDbSymbolTableRecord
100
AcDbLinetypeTableRecord
  2
FENCELINE1
 70
     0
  3
Fenceline circle ----0-----0----0-----0----0---
 72
    65
 73
     4
 40
36.83
 49
6.349999999999998
 74
     0
 49
-2.54
 74
     4
 75
   133
340
74
 46
2.54
 50
0.0
 44
-2.54
 45
0.0
 49
-2.54
 74
     0
 49
25.4
 74
     0
  0
LTYPE
  5
76
330
5
100
AcDbSymbolTableRecord
100
AcDbLinetypeTableRecord
  2
FENCELINE2
 70
     0
  3
Fenceline square ----[]-----[]----[]-----[]----
 72
    65
 73
     4
 40
36.83
 49
6.349999999999998
 74
     0
 49
-2.54
 74
     4
 75
   132
340
74
 46
2.54
 50
0.0
 44
-2.54
 45
0.0
 49
-2.54
 74
     0
 49
25.4
 74
     0
  0
LTYPE
  5
77
330
5
100
AcDbSymbolTableRecord
100
AcDbLinetypeTableRecord
  2
TRACKS
 70
     0
  3
Tracks -|-|-|-|-|-|-|-|-|-|-|-|-|-|-|-|-|-|-|-|
 72
    65
 73
     2
 40
7.62
 49
3.81
 74
     4
 75
   130
340
74
 46
6.349999999999998
 50
0.0
 44
0.0
 45
0.0
 49
3.81
 74
     0
  0
LTYPE
  5
78
330
5
100
AcDbSymbolTableRecord
100
AcDbLinetypeTableRecord
  2
BATTING
 70
     0
  3
Batting SSSSSSSSSSSSSSSSSSSSSSSSSSSSSSSSSSSSSSS
 72
    65
 73
     4
 40
10.16254
 49
0.00254
 74
     0
 49
-2.54
 74
     4
 75
   134
340
74
 46
2.54
 50
0.0
 44
-2.54
 45
0.0
 49
-5.08
 74
     4
 75
   134
340
74
 46
2.54
 50
180.0
 44
2.54
 45
0.0
 49
-2.54
 74
     0
  0
LTYPE
  5
79
330
5
100
AcDbSymbolTableRecord
100
AcDbLinetypeTableRecord
  2
HOT_WATER_SUPPLY
 70
     0
  3
Hot water supply ---- HW ---- HW ---- HW ----
 72
    65
 73
     3
 40
22.86
 49
12.7
 74
     0
 49
-5.08
 74
     2
 75
     0
340
26
 46
2.54
 50
0.0
 44
-2.54
 45
-1.27
  9
HW
 49
-5.08
 74
     0
  0
LTYPE
  5
7A
330
5
100
AcDbSymbolTableRecord
100
AcDbLinetypeTableRecord
  2
GAS_LINE
 70
     0
  3
Gas line ----GAS----GAS----GAS----GAS----GAS---
 72
    65
 73
     3
 40
24.13
 49
12.7
 74
     0
 49
-5.08
 74
     2
 75
     0
340
26
 46
2.54
 50
0.0
 44
-2.54
 45
-1.27
  9
GAS
 49
-6.349999999999998
 74
     0
  0
LTYPE
  5
7B
330
5
100
AcDbSymbolTableRecord
100
AcDbLinetypeTableRecord
  2
ZIGZAG
 70
     0
  3
Zig zag /\/\/\/\/\/\/\/\/\/\/\/\/\/\/\/\/\/\/\/
 72
    65
 73
     4
 40
20.32254
 49
0.00254
 74
     0
 49
-5.08
 74
     4
 75
   131
340
74
 46
5.08
 50
0.0
 44
-5.08
 45
0.0
 49
-10.16
 74
     4
 75
   131
340
74
 46
5.08
 50
180.0
 44
5.08
 45
0.0
 49
-5.08
 74
     0
  0
ENDTAB
  0
TABLE
  2
LAYER
  5
2
330
0
100
AcDbSymbolTable
 70
     4
  0
LAYER
  5
25
330
2
100
AcDbSymbolTableRecord
100
AcDbLayerTableRecord
  2
0
 70
     0
 62
     7
  6
Continuous
370
    -3
390
F
  0
LAYER
  5
88
330
2
100
AcDbSymbolTableRecord
100
AcDbLayerTableRecord
  2
Rahmen (ISO)
 70
     0
 62
     7
  6
Continuous
370
    70
390
F
  0
LAYER
  5
8C
330
2
100
AcDbSymbolTableRecord
100
AcDbLayerTableRecord
  2
Sichtbar (ISO)
 70
     0
 62
     7
  6
Continuous
370
    50
390
F
  0
LAYER
  5
90
330
2
100
AcDbSymbolTableRecord
100
AcDbLayerTableRecord
  2
Titel (ISO)
 70
     0
 62
     7
  6
Continuous
370
    50
390
F
  0
ENDTAB
  0
TABLE
  2
STYLE
  5
3
330
0
100
AcDbSymbolTable
 70
    11
  0
STYLE
  5
26
330
3
100
AcDbSymbolTableRecord
100
AcDbTextStyleTableRecord
  2
Standard
 70
     0
 40
0.0
 41
1.0
 50
0.0
 71
     0
 42
0.2
  3
isocpeur.ttf
  4

1001
ACAD
1000
ISOCPEUR
1071
      256
  0
STYLE
  5
74
330
3
100
AcDbSymbolTableRecord
100
AcDbTextStyleTableRecord
  2

 70
     1
 40
0.0
 41
1.0
 50
0.0
 71
     0
 42
0.2
  3
ltypeshp.shx
  4

  0
STYLE
  5
94
330
3
100
AcDbSymbolTableRecord
100
AcDbTextStyleTableRecord
  2
Bezeichnungstext (ANSI)
 70
     0
 40
0.0
 41
1.0
 50
0.0
 71
     0
 42
0.2
  3
TAHOMA.TTF
  4

1001
ACAD
1000
Tahoma
1071
      256
  0
STYLE
  5
95
330
3
100
AcDbSymbolTableRecord
100
AcDbTextStyleTableRecord
  2
Bezeichnungstext (DIN)
 70
     0
 40
0.0
 41
1.0
 50
0.0
 71
     0
 42
0.2
  3
isocpeur.ttf
  4

1001
ACAD
1000
ISOCPEUR
1071
      256
  0
STYLE
  5
96
330
3
100
AcDbSymbolTableRecord
100
AcDbTextStyleTableRecord
  2
Bezeichnungstext (ISO)
 70
     0
 40
0.0
 41
1.0
 50
0.0
 71
     0
 42
0.2
  3
TAHOMA.TTF
  4

1001
ACAD
1000
Tahoma
1071
      256
  0
STYLE
  5
97
330
3
100
AcDbSymbolTableRecord
100
AcDbTextStyleTableRecord
  2
Bezeichnungstext (JIS)
 70
     0
 40
0.0
 41
1.0
 50
0.0
 71
     0
 42
0.2
  3
TAHOMA.TTF
  4

1001
ACAD
1000
Tahoma
1071
      256
  0
STYLE
  5
98
330
3
100
AcDbSymbolTableRecord
100
AcDbTextStyleTableRecord
  2
Notiztext (ANSI)
 70
     0
 40
0.0
 41
1.0
 50
0.0
 71
     0
 42
0.2
  3
TAHOMA.TTF
  4

1001
ACAD
1000
Tahoma
1071
      256
  0
STYLE
  5
99
330
3
100
AcDbSymbolTableRecord
100
AcDbTextStyleTableRecord
  2
Notiztext (DIN)
 70
     0
 40
0.0
 41
1.0
 50
0.0
 71
     0
 42
0.2
  3
isocpeur.ttf
  4

1001
ACAD
1000
ISOCPEUR
1071
      256
  0
STYLE
  5
9A
330
3
100
AcDbSymbolTableRecord
100
AcDbTextStyleTableRecord
  2
Notiztext (ISO)
 70
     0
 40
0.0
 41
1.0
 50
0.0
 71
     0
 42
0.2
  3
TAHOMA.TTF
  4

1001
ACAD
1000
Tahoma
1071
      256
  0
STYLE
  5
9B
330
3
100
AcDbSymbolTableRecord
100
AcDbTextStyleTableRecord
  2
Notiztext (JIS)
 70
     0
 40
0.0
 41
1.0
 50
0.0
 71
     0
 42
0.2
  3
TAHOMA.TTF
  4

1001
ACAD
1000
Tahoma
1071
      256
  0
STYLE
  5
153
330
3
100
AcDbSymbolTableRecord
100
AcDbTextStyleTableRecord
  2
Textstil7
 70
     0
 40
0.0
 41
1.0
 50
0.0
 71
     0
 42
0.2
  3
isocpeur.ttf
  4

1001
ACAD
1000
ISOCPEUR
1071
      256
  0
ENDTAB
  0
TABLE
  2
VIEW
  5
6
330
0
100
AcDbSymbolTable
 70
     0
  0
ENDTAB
  0
TABLE
  2
UCS
  5
7
330
0
100
AcDbSymbolTable
 70
     0
  0
ENDTAB
  0
TABLE
  2
APPID
  5
9
330
0
100
AcDbSymbolTable
 70
     1
  0
APPID
  5
27
330
9
100
AcDbSymbolTableRecord
100
AcDbRegAppTableRecord
  2
ACAD
 70
     0
  0
ENDTAB
  0
TABLE
  2
DIMSTYLE
  5
A
330
0
100
AcDbSymbolTable
 70
    11
100
AcDbDimStyleTable
 71
     0
  0
DIMSTYLE
105
3F
330
A
100
AcDbSymbolTableRecord
100
AcDbDimStyleTableRecord
  2
Standard
 70
     0
340
26
  0
DIMSTYLE
105
AA
330
A
100
AcDbSymbolTableRecord
100
AcDbDimStyleTableRecord
  2
Sonstiges Objekt (DIN)
 70
     0
 41
5.0
 42
0.0
 43
6.0
 44
3.174999999999998
 45
0.00000001
 46
10.0
 77
     1
 78
     8
 79
     2
140
5.25
143
0.03937
146
0.6666666666666666
147
0.8
171
     3
172
     1
176
   256
177
   256
178
   256
271
     2
272
     2
274
     3
278
    44
284
     8
286
     8
340
95
341
9C
371
    -1
372
    -1
  0
DIMSTYLE
105
AB
330
A
100
AcDbSymbolTableRecord
100
AcDbDimStyleTableRecord
  2
Sonstiges Objekt (DIN)$7
 70
     0
 41
5.0
 42
0.0
 43
6.0
 44
3.174999999999998
 45
0.00000001
 46
10.0
 77
     1
 78
     8
 79
     2
140
5.25
143
0.03937
146
0.6666666666666666
147
0.8
171
     3
172
     1
176
   256
177
   256
178
   256
271
     2
272
     2
274
     3
278
    44
284
     8
286
     8
340
95
341
9C
371
    25
372
    -1
  0
DIMSTYLE
105
AC
330
A
100
AcDbSymbolTableRecord
100
AcDbDimStyleTableRecord
  2
Standard - Methode 2a (DIN)
 70
     0
 41
2.5
 42
0.8
 43
6.0
 44
3.174999999999998
 45
0.00000001
 46
10.0
 77
     1
 78
     8
 79
     2
140
3.5
143
0.03937
147
0.8
170
     1
171
     3
172
     1
176
   256
177
   256
178
   256
179
     2
271
     2
272
     2
274
     3
278
    44
284
     8
286
     8
340
99
371
    -1
372
    -1
  0
DIMSTYLE
105
AD
330
A
100
AcDbSymbolTableRecord
100
AcDbDimStyleTableRecord
  2
Standard - Methode 2a (DIN)$7
 70
     0
 41
2.5
 42
0.8
 43
6.0
 44
3.174999999999998
 45
0.00000001
 46
10.0
 77
     1
 78
     8
 79
     2
140
3.5
143
0.03937
147
0.8
170
     1
171
     3
172
     1
176
   256
177
   256
178
   256
179
     2
271
     2
272
     2
274
     3
278
    44
284
     8
286
     8
340
99
371
    -1
372
    -1
  0
DIMSTYLE
105
AE
330
A
100
AcDbSymbolTableRecord
100
AcDbDimStyleTableRecord
  2
Standard - Methode 2b (DIN)
 70
     0
 41
2.5
 42
0.0
 43
6.0
 44
3.174999999999998
 45
0.00000001
 46
10.0
 77
     1
 78
     8
 79
     2
140
3.5
143
0.03937
147
0.8
171
     3
172
     1
176
   256
177
   256
178
   256
271
     2
272
     2
274
     3
278
    44
284
     8
286
     8
340
99
371
    -1
372
    -1
  0
DIMSTYLE
105
AF
330
A
100
AcDbSymbolTableRecord
100
AcDbDimStyleTableRecord
  2
Standard - Methode 2b (DIN)$7
 70
     0
 41
2.5
 42
0.0
 43
6.0
 44
3.174999999999998
 45
0.00000001
 46
10.0
 77
     1
 78
     8
 79
     2
140
3.5
143
0.03937
147
0.8
171
     3
172
     1
176
   256
177
   256
178
   256
271
     2
272
     2
274
     3
278
    44
284
     8
286
     8
340
99
371
    -1
372
    -1
  0
DIMSTYLE
105
B0
330
A
100
AcDbSymbolTableRecord
100
AcDbDimStyleTableRecord
  2
Standard (DIN)
 70
     0
 41
2.5
 42
0.8
 43
6.0
 44
3.174999999999998
 45
0.00000001
 46
10.0
 73
     0
 74
     0
 77
     1
140
3.5
143
0.03937
147
0.8
171
     3
172
     1
176
   256
177
   256
178
   256
271
     2
272
     2
274
     3
278
    44
340
99
371
    -1
372
    -1
  0
DIMSTYLE
105
B1
330
A
100
AcDbSymbolTableRecord
100
AcDbDimStyleTableRecord
  2
Standard (DIN)$7
 70
     0
 41
2.5
 42
0.8
 43
6.0
 44
3.174999999999998
 45
0.00000001
 46
10.0
 73
     0
 74
     0
 77
     1
140
3.5
143
0.03937
147
0.8
171
     3
172
     1
176
   256
177
   256
178
   256
271
     2
272
     2
274
     3
278
    44
340
99
371
    -1
372
    -1
  0
DIMSTYLE
105
B2
330
A
100
AcDbSymbolTableRecord
100
AcDbDimStyleTableRecord
  2
Alternativ (ISO)
 70
     0
 41
2.5
340
26
342
B3
  0
DIMSTYLE
105
C4
330
A
100
AcDbSymbolTableRecord
100
AcDbDimStyleTableRecord
  2
Bezug (ISO)
 70
     0
 41
2.5
340
26
342
B3
  0
ENDTAB
  0
TABLE
  2
BLOCK_RECORD
  5
1
330
0
100
AcDbSymbolTable
 70
     6
  0
BLOCK_RECORD
  5
37
330
1
100
AcDbSymbolTableRecord
100
AcDbBlockTableRecord
  2
*Model_Space
340
3A
  0
BLOCK_RECORD
  5
33
330
1
100
AcDbSymbolTableRecord
100
AcDbBlockTableRecord
  2
*Paper_Space
340
36
  0
BLOCK_RECORD
  5
3B
330
1
100
AcDbSymbolTableRecord
100
AcDbBlockTableRecord
  2
*Paper_Space0
340
3E
  0
BLOCK_RECORD
  5
9C
330
1
100
AcDbSymbolTableRecord
100
AcDbBlockTableRecord
  2
Filled-1
340
0
  0
BLOCK_RECORD
  5
B3
330
1
100
AcDbSymbolTableRecord
100
AcDbBlockTableRecord
  2
_Closed
340
0
  0
BLOCK_RECORD
  5
BA
330
1
100
AcDbSymbolTableRecord
100
AcDbBlockTableRecord
  2
DatumFilled45
340
0
  0
BLOCK_RECORD
  5
C5
330
1
100
AcDbSymbolTableRecord
100
AcDbBlockTableRecord
  2
Ränder Default Border
340
0
102
{BLKREFS
331
22E
102
}
  0
BLOCK_RECORD
  5
22F
330
1
100
AcDbSymbolTableRecord
100
AcDbBlockTableRecord
  2
Schriftfelder großes schriftfeld
340
0
102
{BLKREFS
331
271
102
}
  0
ENDTAB
  0
ENDSEC
  0
SECTION
  2
BLOCKS
  0
BLOCK
  5
38
330
37
100
AcDbEntity
  8
0
100
AcDbBlockBegin
  2
*Model_Space
 70
     0
 10
0.0
 20
0.0
 30
0.0
  3
*Model_Space
  1

  0
ENDBLK
  5
39
330
37
100
AcDbEntity
  8
0
100
AcDbBlockEnd
  0
BLOCK
  5
34
330
33
100
AcDbEntity
 67
     1
  8
0
100
AcDbBlockBegin
  2
*Paper_Space
 70
     0
 10
0.0
 20
0.0
 30
0.0
  3
*Paper_Space
  1

  0
ENDBLK
  5
35
330
33
100
AcDbEntity
 67
     1
  8
0
100
AcDbBlockEnd
  0
BLOCK
  5
3C
330
3B
100
AcDbEntity
 67
     1
  8
0
100
AcDbBlockBegin
  2
*Paper_Space0
 70
     0
 10
0.0
 20
0.0
 30
0.0
  3
*Paper_Space0
  1

  0
ENDBLK
  5
3D
330
3B
100
AcDbEntity
 67
     1
  8
0
100
AcDbBlockEnd
  0
BLOCK
  5
9D
330
9C
100
AcDbEntity
  8
0
100
AcDbBlockBegin
  2
Filled-1
 70
     0
 10
0.0
 20
0.0
 30
0.0
  3
Filled-1
  1

  0
LINE
  5
9F
330
9C
100
AcDbEntity
  8
0
 62
     0
100
AcDbLine
 10
-1.0
 20
0.0
 30
0.0
 11
0.0
 21
0.0
 31
0.0
  0
POLYLINE
  5
A0
330
9C
100
AcDbEntity
  8
0
 62
     0
100
AcDb2dPolyline
 66
     1
 10
0.0
 20
0.0
 30
0.0
 70
   128
  0
VERTEX
  5
A1
330
A0
100
AcDbEntity
  8
0
 62
     0
100
AcDbVertex
100
AcDb2dVertex
 10
-1.0
 20
-0.1
 30
0.0
  0
VERTEX
  5
A2
330
A0
100
AcDbEntity
  8
0
 62
     0
100
AcDbVertex
100
AcDb2dVertex
 10
0.0
 20
0.0
 30
0.0
  0
VERTEX
  5
A4
330
A0
100
AcDbEntity
  8
0
 62
     0
100
AcDbVertex
100
AcDb2dVertex
 10
-1.0
 20
0.1
 30
0.0
  0
VERTEX
  5
A5
330
A0
100
AcDbEntity
  8
0
 62
     0
100
AcDbVertex
100
AcDb2dVertex
 10
-1.0
 20
-0.1
 30
0.0
  0
SEQEND
  5
A3
330
A0
100
AcDbEntity
  8
0
 62
     0
  0
SOLID
  5
A6
330
9C
100
AcDbEntity
  8
0
 62
     0
100
AcDbTrace
 10
-1.0
 20
-0.1
 30
0.0
 11
0.0
 21
0.0
 31
0.0
 12
-1.0
 22
0.1
 32
0.0
 13
-1.0
 23
-0.1
 33
0.0
  0
LINE
  5
A7
330
9C
100
AcDbEntity
  8
0
 62
     0
100
AcDbLine
 10
-1.0
 20
-0.1
 30
0.0
 11
0.0
 21
0.0
 31
0.0
  0
LINE
  5
A8
330
9C
100
AcDbEntity
  8
0
 62
     0
100
AcDbLine
 10
0.0
 20
0.0
 30
0.0
 11
-1.0
 21
0.1
 31
0.0
  0
LINE
  5
A9
330
9C
100
AcDbEntity
  8
0
 62
     0
100
AcDbLine
 10
-1.0
 20
0.1
 30
0.0
 11
-1.0
 21
-0.1
 31
0.0
  0
ENDBLK
  5
9E
330
9C
100
AcDbEntity
  8
0
100
AcDbBlockEnd
  0
BLOCK
  5
B8
330
B3
100
AcDbEntity
  8
0
100
AcDbBlockBegin
  2
_Closed
 70
     0
 10
0.0
 20
0.0
 30
0.0
  3
_Closed
  1

  0
LINE
  5
B4
330
B3
100
AcDbEntity
  8
0
  6
ByBlock
 62
     0
370
    -2
100
AcDbLine
 10
-1.0
 20
0.1666666666666666
 30
0.0
 11
0.0
 21
0.0
 31
0.0
  0
LINE
  5
B5
330
B3
100
AcDbEntity
  8
0
  6
ByBlock
 62
     0
370
    -2
100
AcDbLine
 10
0.0
 20
0.0
 30
0.0
 11
-1.0
 21
-0.1666666666666666
 31
0.0
  0
LINE
  5
B6
330
B3
100
AcDbEntity
  8
0
  6
ByBlock
 62
     0
370
    -2
100
AcDbLine
 10
-1.0
 20
0.1666666666666666
 30
0.0
 11
-1.0
 21
-0.1666666666666666
 31
0.0
  0
LINE
  5
B7
330
B3
100
AcDbEntity
  8
0
  6
ByBlock
 62
     0
370
    -2
100
AcDbLine
 10
0.0
 20
0.0
 30
0.0
 11
-1.0
 21
0.0
 31
0.0
  0
ENDBLK
  5
B9
330
B3
100
AcDbEntity
  8
0
100
AcDbBlockEnd
  0
BLOCK
  5
BB
330
BA
100
AcDbEntity
  8
0
100
AcDbBlockBegin
  2
DatumFilled45
 70
     0
 10
0.0
 20
0.0
 30
0.0
  3
DatumFilled45
  1

  0
POLYLINE
  5
BD
330
BA
100
AcDbEntity
  8
0
 62
     0
100
AcDb2dPolyline
 66
     1
 10
0.0
 20
0.0
 30
0.0
 70
   128
  0
VERTEX
  5
BE
330
BD
100
AcDbEntity
  8
0
 62
     0
100
AcDbVertex
100
AcDb2dVertex
 10
0.0
 20
1.0
 30
0.0
  0
VERTEX
  5
BF
330
BD
100
AcDbEntity
  8
0
 62
     0
100
AcDbVertex
100
AcDb2dVertex
 10
0.0
 20
-1.0
 30
0.0
  0
VERTEX
  5
C1
330
BD
100
AcDbEntity
  8
0
 62
     0
100
AcDbVertex
100
AcDb2dVertex
 10
-1.0
 20
0.0
 30
0.0
  0
VERTEX
  5
C2
330
BD
100
AcDbEntity
  8
0
 62
     0
100
AcDbVertex
100
AcDb2dVertex
 10
0.0
 20
1.0
 30
0.0
  0
SEQEND
  5
C0
330
BD
100
AcDbEntity
  8
0
 62
     0
  0
SOLID
  5
C3
330
BA
100
AcDbEntity
  8
0
 62
     0
100
AcDbTrace
 10
0.0
 20
1.0
 30
0.0
 11
0.0
 21
-1.0
 31
0.0
 12
-1.0
 22
0.0
 32
0.0
 13
0.0
 23
1.0
 33
0.0
  0
ENDBLK
  5
BC
330
BA
100
AcDbEntity
  8
0
100
AcDbBlockEnd
  0
BLOCK
  5
C6
330
C5
100
AcDbEntity
  8
0
100
AcDbBlockBegin
  2
Ränder Default Border
 70
     0
 10
0.0
 20
0.0
 30
0.0
  3
Ränder Default Border
  1

  0
POLYLINE
  5
C8
330
C5
100
AcDbEntity
  8
Rahmen (ISO)
100
AcDb2dPolyline
 66
     1
 10
0.0
 20
0.0
 30
0.0
 70
   128
  0
VERTEX
  5
C9
330
C8
100
AcDbEntity
  8
Rahmen (ISO)
100
AcDbVertex
100
AcDb2dVertex
 10
20.0
 20
20.0
 30
0.0
  0
VERTEX
  5
CA
330
C8
100
AcDbEntity
  8
Rahmen (ISO)
100
AcDbVertex
100
AcDb2dVertex
 10
20.0
 20
1980.0
 30
0.0
  0
VERTEX
  5
CC
330
C8
100
AcDbEntity
  8
Rahmen (ISO)
100
AcDbVertex
100
AcDb2dVertex
 10
3980.0
 20
1980.0
 30
0.0
  0
VERTEX
  5
CD
330
C8
100
AcDbEntity
  8
Rahmen (ISO)
100
AcDbVertex
100
AcDb2dVertex
 10
3980.0
 20
20.0
 30
0.0
  0
VERTEX
  5
CE
330
C8
100
AcDbEntity
  8
Rahmen (ISO)
100
AcDbVertex
100
AcDb2dVertex
 10
20.0
 20
20.0
 30
0.0
  0
SEQEND
  5
CB
330
C8
100
AcDbEntity
  8
Rahmen (ISO)
  0
POLYLINE
  5
CF
330
C5
100
AcDbEntity
  8
Rahmen (ISO)
100
AcDb2dPolyline
 66
     1
 10
0.0
 20
0.0
 30
0.0
 70
   128
  0
VERTEX
  5
D0
330
CF
100
AcDbEntity
  8
Rahmen (ISO)
100
AcDbVertex
100
AcDb2dVertex
 10
2000.0
 20
0.0
 30
0.0
  0
VERTEX
  5
D1
330
CF
100
AcDbEntity
  8
Rahmen (ISO)
100
AcDbVertex
100
AcDb2dVertex
 10
2000.0
 20
20.0
 30
0.0
  0
VERTEX
  5
D3
330
CF
100
AcDbEntity
  8
Rahmen (ISO)
100
AcDbVertex
100
AcDb2dVertex
 10
1994.226531982422
 20
10.0
 30
0.0
  0
VERTEX
  5
D4
330
CF
100
AcDbEntity
  8
Rahmen (ISO)
100
AcDbVertex
100
AcDb2dVertex
 10
2005.773468017578
 20
10.0
 30
0.0
  0
VERTEX
  5
D5
330
CF
100
AcDbEntity
  8
Rahmen (ISO)
100
AcDbVertex
100
AcDb2dVertex
 10
2000.0
 20
20.0
 30
0.0
  0
SEQEND
  5
D2
330
CF
100
AcDbEntity
  8
Rahmen (ISO)
  0
POLYLINE
  5
D6
330
C5
100
AcDbEntity
  8
Rahmen (ISO)
100
AcDb2dPolyline
 66
     1
 10
0.0
 20
0.0
 30
0.0
 70
   128
  0
VERTEX
  5
D7
330
D6
100
AcDbEntity
  8
Rahmen (ISO)
100
AcDbVertex
100
AcDb2dVertex
 10
2000.0
 20
2000.0
 30
0.0
  0
VERTEX
  5
D8
330
D6
100
AcDbEntity
  8
Rahmen (ISO)
100
AcDbVertex
100
AcDb2dVertex
 10
2000.0
 20
1980.0
 30
0.0
  0
VERTEX
  5
DA
330
D6
100
AcDbEntity
  8
Rahmen (ISO)
100
AcDbVertex
100
AcDb2dVertex
 10
1994.226531982422
 20
1990.0
 30
0.0
  0
VERTEX
  5
DB
330
D6
100
AcDbEntity
  8
Rahmen (ISO)
100
AcDbVertex
100
AcDb2dVertex
 10
2005.773468017578
 20
1990.0
 30
0.0
  0
VERTEX
  5
DC
330
D6
100
AcDbEntity
  8
Rahmen (ISO)
100
AcDbVertex
100
AcDb2dVertex
 10
2000.0
 20
1980.0
 30
0.0
  0
SEQEND
  5
D9
330
D6
100
AcDbEntity
  8
Rahmen (ISO)
  0
POLYLINE
  5
DD
330
C5
100
AcDbEntity
  8
Rahmen (ISO)
100
AcDb2dPolyline
 66
     1
 10
0.0
 20
0.0
 30
0.0
 70
   128
  0
VERTEX
  5
DE
330
DD
100
AcDbEntity
  8
Rahmen (ISO)
100
AcDbVertex
100
AcDb2dVertex
 10
0.0
 20
1000.0
 30
0.0
  0
VERTEX
  5
DF
330
DD
100
AcDbEntity
  8
Rahmen (ISO)
100
AcDbVertex
100
AcDb2dVertex
 10
20.0
 20
1000.0
 30
0.0
  0
VERTEX
  5
E1
330
DD
100
AcDbEntity
  8
Rahmen (ISO)
100
AcDbVertex
100
AcDb2dVertex
 10
10.0
 20
1005.773468017578
 30
0.0
  0
VERTEX
  5
E2
330
DD
100
AcDbEntity
  8
Rahmen (ISO)
100
AcDbVertex
100
AcDb2dVertex
 10
10.0
 20
994.2265319824219
 30
0.0
  0
VERTEX
  5
E3
330
DD
100
AcDbEntity
  8
Rahmen (ISO)
100
AcDbVertex
100
AcDb2dVertex
 10
20.0
 20
1000.0
 30
0.0
  0
SEQEND
  5
E0
330
DD
100
AcDbEntity
  8
Rahmen (ISO)
  0
POLYLINE
  5
E4
330
C5
100
AcDbEntity
  8
Rahmen (ISO)
100
AcDb2dPolyline
 66
     1
 10
0.0
 20
0.0
 30
0.0
 70
   128
  0
VERTEX
  5
E5
330
E4
100
AcDbEntity
  8
Rahmen (ISO)
100
AcDbVertex
100
AcDb2dVertex
 10
4000.0
 20
1000.0
 30
0.0
  0
VERTEX
  5
E6
330
E4
100
AcDbEntity
  8
Rahmen (ISO)
100
AcDbVertex
100
AcDb2dVertex
 10
3980.0
 20
1000.0
 30
0.0
  0
VERTEX
  5
E8
330
E4
100
AcDbEntity
  8
Rahmen (ISO)
100
AcDbVertex
100
AcDb2dVertex
 10
3990.0
 20
1005.773468017578
 30
0.0
  0
VERTEX
  5
E9
330
E4
100
AcDbEntity
  8
Rahmen (ISO)
100
AcDbVertex
100
AcDb2dVertex
 10
3990.0
 20
994.2265319824219
 30
0.0
  0
VERTEX
  5
EA
330
E4
100
AcDbEntity
  8
Rahmen (ISO)
100
AcDbVertex
100
AcDb2dVertex
 10
3980.0
 20
1000.0
 30
0.0
  0
SEQEND
  5
E7
330
E4
100
AcDbEntity
  8
Rahmen (ISO)
  0
LINE
  5
EB
330
C5
100
AcDbEntity
  8
Rahmen (ISO)
100
AcDbLine
 10
74.07407283782958
 20
20.0
 30
0.0
 11
74.07407283782958
 21
16.10000014305114
 31
0.0
  0
LINE
  5
EC
330
C5
100
AcDbEntity
  8
Rahmen (ISO)
100
AcDbLine
 10
74.07407283782958
 20
1980.0
 30
0.0
 11
74.07407283782958
 21
1983.899993896484
 31
0.0
  0
LINE
  5
ED
330
C5
100
AcDbEntity
  8
Rahmen (ISO)
100
AcDbLine
 10
148.1481456756592
 20
20.0
 30
0.0
 11
148.1481456756592
 21
16.10000014305114
 31
0.0
  0
LINE
  5
EE
330
C5
100
AcDbEntity
  8
Rahmen (ISO)
100
AcDbLine
 10
148.1481456756592
 20
1980.0
 30
0.0
 11
148.1481456756592
 21
1983.899993896484
 31
0.0
  0
LINE
  5
EF
330
C5
100
AcDbEntity
  8
Rahmen (ISO)
100
AcDbLine
 10
222.2222137451172
 20
20.0
 30
0.0
 11
222.2222137451172
 21
16.10000014305114
 31
0.0
  0
LINE
  5
F0
330
C5
100
AcDbEntity
  8
Rahmen (ISO)
100
AcDbLine
 10
222.2222137451172
 20
1980.0
 30
0.0
 11
222.2222137451172
 21
1983.899993896484
 31
0.0
  0
LINE
  5
F1
330
C5
100
AcDbEntity
  8
Rahmen (ISO)
100
AcDbLine
 10
296.2962913513184
 20
20.0
 30
0.0
 11
296.2962913513184
 21
16.10000014305114
 31
0.0
  0
LINE
  5
F2
330
C5
100
AcDbEntity
  8
Rahmen (ISO)
100
AcDbLine
 10
296.2962913513184
 20
1980.0
 30
0.0
 11
296.2962913513184
 21
1983.899993896484
 31
0.0
  0
LINE
  5
F3
330
C5
100
AcDbEntity
  8
Rahmen (ISO)
100
AcDbLine
 10
370.3703689575196
 20
20.0
 30
0.0
 11
370.3703689575196
 21
16.10000014305114
 31
0.0
  0
LINE
  5
F4
330
C5
100
AcDbEntity
  8
Rahmen (ISO)
100
AcDbLine
 10
370.3703689575196
 20
1980.0
 30
0.0
 11
370.3703689575196
 21
1983.899993896484
 31
0.0
  0
LINE
  5
F5
330
C5
100
AcDbEntity
  8
Rahmen (ISO)
100
AcDbLine
 10
444.4444274902344
 20
20.0
 30
0.0
 11
444.4444274902344
 21
16.10000014305114
 31
0.0
  0
LINE
  5
F6
330
C5
100
AcDbEntity
  8
Rahmen (ISO)
100
AcDbLine
 10
444.4444274902344
 20
1980.0
 30
0.0
 11
444.4444274902344
 21
1983.899993896484
 31
0.0
  0
LINE
  5
F7
330
C5
100
AcDbEntity
  8
Rahmen (ISO)
100
AcDbLine
 10
518.5185241699217
 20
20.0
 30
0.0
 11
518.5185241699217
 21
16.10000014305114
 31
0.0
  0
LINE
  5
F8
330
C5
100
AcDbEntity
  8
Rahmen (ISO)
100
AcDbLine
 10
518.5185241699217
 20
1980.0
 30
0.0
 11
518.5185241699217
 21
1983.899993896484
 31
0.0
  0
LINE
  5
F9
330
C5
100
AcDbEntity
  8
Rahmen (ISO)
100
AcDbLine
 10
592.5925827026367
 20
20.0
 30
0.0
 11
592.5925827026367
 21
16.10000014305114
 31
0.0
  0
LINE
  5
FA
330
C5
100
AcDbEntity
  8
Rahmen (ISO)
100
AcDbLine
 10
592.5925827026367
 20
1980.0
 30
0.0
 11
592.5925827026367
 21
1983.899993896484
 31
0.0
  0
LINE
  5
FB
330
C5
100
AcDbEntity
  8
Rahmen (ISO)
100
AcDbLine
 10
666.6666412353514
 20
20.0
 30
0.0
 11
666.6666412353514
 21
16.10000014305114
 31
0.0
  0
LINE
  5
FC
330
C5
100
AcDbEntity
  8
Rahmen (ISO)
100
AcDbLine
 10
666.6666412353514
 20
1980.0
 30
0.0
 11
666.6666412353514
 21
1983.899993896484
 31
0.0
  0
LINE
  5
FD
330
C5
100
AcDbEntity
  8
Rahmen (ISO)
100
AcDbLine
 10
740.7407379150391
 20
20.0
 30
0.0
 11
740.7407379150391
 21
16.10000014305114
 31
0.0
  0
LINE
  5
FE
330
C5
100
AcDbEntity
  8
Rahmen (ISO)
100
AcDbLine
 10
740.7407379150391
 20
1980.0
 30
0.0
 11
740.7407379150391
 21
1983.899993896484
 31
0.0
  0
LINE
  5
FF
330
C5
100
AcDbEntity
  8
Rahmen (ISO)
100
AcDbLine
 10
814.8148345947266
 20
20.0
 30
0.0
 11
814.8148345947266
 21
16.10000014305114
 31
0.0
  0
LINE
  5
100
330
C5
100
AcDbEntity
  8
Rahmen (ISO)
100
AcDbLine
 10
814.8148345947266
 20
1980.0
 30
0.0
 11
814.8148345947266
 21
1983.899993896484
 31
0.0
  0
LINE
  5
101
330
C5
100
AcDbEntity
  8
Rahmen (ISO)
100
AcDbLine
 10
888.8888549804688
 20
20.0
 30
0.0
 11
888.8888549804688
 21
16.10000014305114
 31
0.0
  0
LINE
  5
102
330
C5
100
AcDbEntity
  8
Rahmen (ISO)
100
AcDbLine
 10
888.8888549804688
 20
1980.0
 30
0.0
 11
888.8888549804688
 21
1983.899993896484
 31
0.0
  0
LINE
  5
103
330
C5
100
AcDbEntity
  8
Rahmen (ISO)
100
AcDbLine
 10
962.9629516601562
 20
20.0
 30
0.0
 11
962.9629516601562
 21
16.10000014305114
 31
0.0
  0
LINE
  5
104
330
C5
100
AcDbEntity
  8
Rahmen (ISO)
100
AcDbLine
 10
962.9629516601562
 20
1980.0
 30
0.0
 11
962.9629516601562
 21
1983.899993896484
 31
0.0
  0
LINE
  5
105
330
C5
100
AcDbEntity
  8
Rahmen (ISO)
100
AcDbLine
 10
1037.037048339843
 20
20.0
 30
0.0
 11
1037.037048339843
 21
16.10000014305114
 31
0.0
  0
LINE
  5
106
330
C5
100
AcDbEntity
  8
Rahmen (ISO)
100
AcDbLine
 10
1037.037048339843
 20
1980.0
 30
0.0
 11
1037.037048339843
 21
1983.899993896484
 31
0.0
  0
LINE
  5
107
330
C5
100
AcDbEntity
  8
Rahmen (ISO)
100
AcDbLine
 10
1111.111145019531
 20
20.0
 30
0.0
 11
1111.111145019531
 21
16.10000014305114
 31
0.0
  0
LINE
  5
108
330
C5
100
AcDbEntity
  8
Rahmen (ISO)
100
AcDbLine
 10
1111.111145019531
 20
1980.0
 30
0.0
 11
1111.111145019531
 21
1983.899993896484
 31
0.0
  0
LINE
  5
109
330
C5
100
AcDbEntity
  8
Rahmen (ISO)
100
AcDbLine
 10
1185.185165405273
 20
20.0
 30
0.0
 11
1185.185165405273
 21
16.10000014305114
 31
0.0
  0
LINE
  5
10A
330
C5
100
AcDbEntity
  8
Rahmen (ISO)
100
AcDbLine
 10
1185.185165405273
 20
1980.0
 30
0.0
 11
1185.185165405273
 21
1983.899993896484
 31
0.0
  0
LINE
  5
10B
330
C5
100
AcDbEntity
  8
Rahmen (ISO)
100
AcDbLine
 10
1259.259262084961
 20
20.0
 30
0.0
 11
1259.259262084961
 21
16.10000014305114
 31
0.0
  0
LINE
  5
10C
330
C5
100
AcDbEntity
  8
Rahmen (ISO)
100
AcDbLine
 10
1259.259262084961
 20
1980.0
 30
0.0
 11
1259.259262084961
 21
1983.899993896484
 31
0.0
  0
LINE
  5
10D
330
C5
100
AcDbEntity
  8
Rahmen (ISO)
100
AcDbLine
 10
1333.333282470703
 20
20.0
 30
0.0
 11
1333.333282470703
 21
16.10000014305114
 31
0.0
  0
LINE
  5
10E
330
C5
100
AcDbEntity
  8
Rahmen (ISO)
100
AcDbLine
 10
1333.333282470703
 20
1980.0
 30
0.0
 11
1333.333282470703
 21
1983.899993896484
 31
0.0
  0
LINE
  5
10F
330
C5
100
AcDbEntity
  8
Rahmen (ISO)
100
AcDbLine
 10
1407.40737915039
 20
20.0
 30
0.0
 11
1407.40737915039
 21
16.10000014305114
 31
0.0
  0
LINE
  5
110
330
C5
100
AcDbEntity
  8
Rahmen (ISO)
100
AcDbLine
 10
1407.40737915039
 20
1980.0
 30
0.0
 11
1407.40737915039
 21
1983.899993896484
 31
0.0
  0
LINE
  5
111
330
C5
100
AcDbEntity
  8
Rahmen (ISO)
100
AcDbLine
 10
1481.481475830078
 20
20.0
 30
0.0
 11
1481.481475830078
 21
16.10000014305114
 31
0.0
  0
LINE
  5
112
330
C5
100
AcDbEntity
  8
Rahmen (ISO)
100
AcDbLine
 10
1481.481475830078
 20
1980.0
 30
0.0
 11
1481.481475830078
 21
1983.899993896484
 31
0.0
  0
LINE
  5
113
330
C5
100
AcDbEntity
  8
Rahmen (ISO)
100
AcDbLine
 10
1555.555572509766
 20
20.0
 30
0.0
 11
1555.555572509766
 21
16.10000014305114
 31
0.0
  0
LINE
  5
114
330
C5
100
AcDbEntity
  8
Rahmen (ISO)
100
AcDbLine
 10
1555.555572509766
 20
1980.0
 30
0.0
 11
1555.555572509766
 21
1983.899993896484
 31
0.0
  0
LINE
  5
115
330
C5
100
AcDbEntity
  8
Rahmen (ISO)
100
AcDbLine
 10
1629.629669189453
 20
20.0
 30
0.0
 11
1629.629669189453
 21
16.10000014305114
 31
0.0
  0
LINE
  5
116
330
C5
100
AcDbEntity
  8
Rahmen (ISO)
100
AcDbLine
 10
1629.629669189453
 20
1980.0
 30
0.0
 11
1629.629669189453
 21
1983.899993896484
 31
0.0
  0
LINE
  5
117
330
C5
100
AcDbEntity
  8
Rahmen (ISO)
100
AcDbLine
 10
1703.70376586914
 20
20.0
 30
0.0
 11
1703.70376586914
 21
16.10000014305114
 31
0.0
  0
LINE
  5
118
330
C5
100
AcDbEntity
  8
Rahmen (ISO)
100
AcDbLine
 10
1703.70376586914
 20
1980.0
 30
0.0
 11
1703.70376586914
 21
1983.899993896484
 31
0.0
  0
LINE
  5
119
330
C5
100
AcDbEntity
  8
Rahmen (ISO)
100
AcDbLine
 10
1777.777709960937
 20
20.0
 30
0.0
 11
1777.777709960937
 21
16.10000014305114
 31
0.0
  0
LINE
  5
11A
330
C5
100
AcDbEntity
  8
Rahmen (ISO)
100
AcDbLine
 10
1777.777709960937
 20
1980.0
 30
0.0
 11
1777.777709960937
 21
1983.899993896484
 31
0.0
  0
LINE
  5
11B
330
C5
100
AcDbEntity
  8
Rahmen (ISO)
100
AcDbLine
 10
1851.851806640625
 20
20.0
 30
0.0
 11
1851.851806640625
 21
16.10000014305114
 31
0.0
  0
LINE
  5
11C
330
C5
100
AcDbEntity
  8
Rahmen (ISO)
100
AcDbLine
 10
1851.851806640625
 20
1980.0
 30
0.0
 11
1851.851806640625
 21
1983.899993896484
 31
0.0
  0
LINE
  5
11D
330
C5
100
AcDbEntity
  8
Rahmen (ISO)
100
AcDbLine
 10
1925.925903320312
 20
20.0
 30
0.0
 11
1925.925903320312
 21
16.10000014305114
 31
0.0
  0
LINE
  5
11E
330
C5
100
AcDbEntity
  8
Rahmen (ISO)
100
AcDbLine
 10
1925.925903320312
 20
1980.0
 30
0.0
 11
1925.925903320312
 21
1983.899993896484
 31
0.0
  0
LINE
  5
11F
330
C5
100
AcDbEntity
  8
Rahmen (ISO)
100
AcDbLine
 10
2074.074096679687
 20
20.0
 30
0.0
 11
2074.074096679687
 21
16.10000014305114
 31
0.0
  0
LINE
  5
120
330
C5
100
AcDbEntity
  8
Rahmen (ISO)
100
AcDbLine
 10
2074.074096679687
 20
1980.0
 30
0.0
 11
2074.074096679687
 21
1983.899993896484
 31
0.0
  0
LINE
  5
121
330
C5
100
AcDbEntity
  8
Rahmen (ISO)
100
AcDbLine
 10
2148.148193359375
 20
20.0
 30
0.0
 11
2148.148193359375
 21
16.10000014305114
 31
0.0
  0
LINE
  5
122
330
C5
100
AcDbEntity
  8
Rahmen (ISO)
100
AcDbLine
 10
2148.148193359375
 20
1980.0
 30
0.0
 11
2148.148193359375
 21
1983.899993896484
 31
0.0
  0
LINE
  5
123
330
C5
100
AcDbEntity
  8
Rahmen (ISO)
100
AcDbLine
 10
2222.222290039063
 20
20.0
 30
0.0
 11
2222.222290039063
 21
16.10000014305114
 31
0.0
  0
LINE
  5
124
330
C5
100
AcDbEntity
  8
Rahmen (ISO)
100
AcDbLine
 10
2222.222290039063
 20
1980.0
 30
0.0
 11
2222.222290039063
 21
1983.899993896484
 31
0.0
  0
LINE
  5
125
330
C5
100
AcDbEntity
  8
Rahmen (ISO)
100
AcDbLine
 10
2296.296234130859
 20
20.0
 30
0.0
 11
2296.296234130859
 21
16.10000014305114
 31
0.0
  0
LINE
  5
126
330
C5
100
AcDbEntity
  8
Rahmen (ISO)
100
AcDbLine
 10
2296.296234130859
 20
1980.0
 30
0.0
 11
2296.296234130859
 21
1983.899993896484
 31
0.0
  0
LINE
  5
127
330
C5
100
AcDbEntity
  8
Rahmen (ISO)
100
AcDbLine
 10
2370.370330810547
 20
20.0
 30
0.0
 11
2370.370330810547
 21
16.10000014305114
 31
0.0
  0
LINE
  5
128
330
C5
100
AcDbEntity
  8
Rahmen (ISO)
100
AcDbLine
 10
2370.370330810547
 20
1980.0
 30
0.0
 11
2370.370330810547
 21
1983.899993896484
 31
0.0
  0
LINE
  5
129
330
C5
100
AcDbEntity
  8
Rahmen (ISO)
100
AcDbLine
 10
2444.444427490235
 20
20.0
 30
0.0
 11
2444.444427490235
 21
16.10000014305114
 31
0.0
  0
LINE
  5
12A
330
C5
100
AcDbEntity
  8
Rahmen (ISO)
100
AcDbLine
 10
2444.444427490235
 20
1980.0
 30
0.0
 11
2444.444427490235
 21
1983.899993896484
 31
0.0
  0
LINE
  5
12B
330
C5
100
AcDbEntity
  8
Rahmen (ISO)
100
AcDbLine
 10
2518.518524169922
 20
20.0
 30
0.0
 11
2518.518524169922
 21
16.10000014305114
 31
0.0
  0
LINE
  5
12C
330
C5
100
AcDbEntity
  8
Rahmen (ISO)
100
AcDbLine
 10
2518.518524169922
 20
1980.0
 30
0.0
 11
2518.518524169922
 21
1983.899993896484
 31
0.0
  0
LINE
  5
12D
330
C5
100
AcDbEntity
  8
Rahmen (ISO)
100
AcDbLine
 10
2592.592468261719
 20
20.0
 30
0.0
 11
2592.592468261719
 21
16.10000014305114
 31
0.0
  0
LINE
  5
12E
330
C5
100
AcDbEntity
  8
Rahmen (ISO)
100
AcDbLine
 10
2592.592468261719
 20
1980.0
 30
0.0
 11
2592.592468261719
 21
1983.899993896484
 31
0.0
  0
LINE
  5
12F
330
C5
100
AcDbEntity
  8
Rahmen (ISO)
100
AcDbLine
 10
2666.666564941407
 20
20.0
 30
0.0
 11
2666.666564941407
 21
16.10000014305114
 31
0.0
  0
LINE
  5
130
330
C5
100
AcDbEntity
  8
Rahmen (ISO)
100
AcDbLine
 10
2666.666564941407
 20
1980.0
 30
0.0
 11
2666.666564941407
 21
1983.899993896484
 31
0.0
  0
LINE
  5
131
330
C5
100
AcDbEntity
  8
Rahmen (ISO)
100
AcDbLine
 10
2740.740661621094
 20
20.0
 30
0.0
 11
2740.740661621094
 21
16.10000014305114
 31
0.0
  0
LINE
  5
132
330
C5
100
AcDbEntity
  8
Rahmen (ISO)
100
AcDbLine
 10
2740.740661621094
 20
1980.0
 30
0.0
 11
2740.740661621094
 21
1983.899993896484
 31
0.0
  0
LINE
  5
133
330
C5
100
AcDbEntity
  8
Rahmen (ISO)
100
AcDbLine
 10
2814.814758300781
 20
20.0
 30
0.0
 11
2814.814758300781
 21
16.10000014305114
 31
0.0
  0
LINE
  5
134
330
C5
100
AcDbEntity
  8
Rahmen (ISO)
100
AcDbLine
 10
2814.814758300781
 20
1980.0
 30
0.0
 11
2814.814758300781
 21
1983.899993896484
 31
0.0
  0
LINE
  5
135
330
C5
100
AcDbEntity
  8
Rahmen (ISO)
100
AcDbLine
 10
2888.888854980469
 20
20.0
 30
0.0
 11
2888.888854980469
 21
16.10000014305114
 31
0.0
  0
LINE
  5
136
330
C5
100
AcDbEntity
  8
Rahmen (ISO)
100
AcDbLine
 10
2888.888854980469
 20
1980.0
 30
0.0
 11
2888.888854980469
 21
1983.899993896484
 31
0.0
  0
LINE
  5
137
330
C5
100
AcDbEntity
  8
Rahmen (ISO)
100
AcDbLine
 10
2962.962951660156
 20
20.0
 30
0.0
 11
2962.962951660156
 21
16.10000014305114
 31
0.0
  0
LINE
  5
138
330
C5
100
AcDbEntity
  8
Rahmen (ISO)
100
AcDbLine
 10
2962.962951660156
 20
1980.0
 30
0.0
 11
2962.962951660156
 21
1983.899993896484
 31
0.0
  0
LINE
  5
139
330
C5
100
AcDbEntity
  8
Rahmen (ISO)
100
AcDbLine
 10
3037.037048339844
 20
20.0
 30
0.0
 11
3037.037048339844
 21
16.10000014305114
 31
0.0
  0
LINE
  5
13A
330
C5
100
AcDbEntity
  8
Rahmen (ISO)
100
AcDbLine
 10
3037.037048339844
 20
1980.0
 30
0.0
 11
3037.037048339844
 21
1983.899993896484
 31
0.0
  0
LINE
  5
13B
330
C5
100
AcDbEntity
  8
Rahmen (ISO)
100
AcDbLine
 10
3111.111145019532
 20
20.0
 30
0.0
 11
3111.111145019532
 21
16.10000014305114
 31
0.0
  0
LINE
  5
13C
330
C5
100
AcDbEntity
  8
Rahmen (ISO)
100
AcDbLine
 10
3111.111145019532
 20
1980.0
 30
0.0
 11
3111.111145019532
 21
1983.899993896484
 31
0.0
  0
LINE
  5
13D
330
C5
100
AcDbEntity
  8
Rahmen (ISO)
100
AcDbLine
 10
3185.185241699219
 20
20.0
 30
0.0
 11
3185.185241699219
 21
16.10000014305114
 31
0.0
  0
LINE
  5
13E
330
C5
100
AcDbEntity
  8
Rahmen (ISO)
100
AcDbLine
 10
3185.185241699219
 20
1980.0
 30
0.0
 11
3185.185241699219
 21
1983.899993896484
 31
0.0
  0
LINE
  5
13F
330
C5
100
AcDbEntity
  8
Rahmen (ISO)
100
AcDbLine
 10
3259.259338378907
 20
20.0
 30
0.0
 11
3259.259338378907
 21
16.10000014305114
 31
0.0
  0
LINE
  5
140
330
C5
100
AcDbEntity
  8
Rahmen (ISO)
100
AcDbLine
 10
3259.259338378907
 20
1980.0
 30
0.0
 11
3259.259338378907
 21
1983.899993896484
 31
0.0
  0
LINE
  5
141
330
C5
100
AcDbEntity
  8
Rahmen (ISO)
100
AcDbLine
 10
3333.333435058594
 20
20.0
 30
0.0
 11
3333.333435058594
 21
16.10000014305114
 31
0.0
  0
LINE
  5
142
330
C5
100
AcDbEntity
  8
Rahmen (ISO)
100
AcDbLine
 10
3333.333435058594
 20
1980.0
 30
0.0
 11
3333.333435058594
 21
1983.899993896484
 31
0.0
  0
LINE
  5
143
330
C5
100
AcDbEntity
  8
Rahmen (ISO)
100
AcDbLine
 10
3407.407531738281
 20
20.0
 30
0.0
 11
3407.407531738281
 21
16.10000014305114
 31
0.0
  0
LINE
  5
144
330
C5
100
AcDbEntity
  8
Rahmen (ISO)
100
AcDbLine
 10
3407.407531738281
 20
1980.0
 30
0.0
 11
3407.407531738281
 21
1983.899993896484
 31
0.0
  0
LINE
  5
145
330
C5
100
AcDbEntity
  8
Rahmen (ISO)
100
AcDbLine
 10
3481.481628417969
 20
20.0
 30
0.0
 11
3481.481628417969
 21
16.10000014305114
 31
0.0
  0
LINE
  5
146
330
C5
100
AcDbEntity
  8
Rahmen (ISO)
100
AcDbLine
 10
3481.481628417969
 20
1980.0
 30
0.0
 11
3481.481628417969
 21
1983.899993896484
 31
0.0
  0
LINE
  5
147
330
C5
100
AcDbEntity
  8
Rahmen (ISO)
100
AcDbLine
 10
3555.555419921875
 20
20.0
 30
0.0
 11
3555.555419921875
 21
16.10000014305114
 31
0.0
  0
LINE
  5
148
330
C5
100
AcDbEntity
  8
Rahmen (ISO)
100
AcDbLine
 10
3555.555419921875
 20
1980.0
 30
0.0
 11
3555.555419921875
 21
1983.899993896484
 31
0.0
  0
LINE
  5
149
330
C5
100
AcDbEntity
  8
Rahmen (ISO)
100
AcDbLine
 10
3629.629516601563
 20
20.0
 30
0.0
 11
3629.629516601563
 21
16.10000014305114
 31
0.0
  0
LINE
  5
14A
330
C5
100
AcDbEntity
  8
Rahmen (ISO)
100
AcDbLine
 10
3629.629516601563
 20
1980.0
 30
0.0
 11
3629.629516601563
 21
1983.899993896484
 31
0.0
  0
LINE
  5
14B
330
C5
100
AcDbEntity
  8
Rahmen (ISO)
100
AcDbLine
 10
3703.703613281252
 20
20.0
 30
0.0
 11
3703.703613281252
 21
16.10000014305114
 31
0.0
  0
LINE
  5
14C
330
C5
100
AcDbEntity
  8
Rahmen (ISO)
100
AcDbLine
 10
3703.703613281252
 20
1980.0
 30
0.0
 11
3703.703613281252
 21
1983.899993896484
 31
0.0
  0
LINE
  5
14D
330
C5
100
AcDbEntity
  8
Rahmen (ISO)
100
AcDbLine
 10
3777.777709960937
 20
20.0
 30
0.0
 11
3777.777709960937
 21
16.10000014305114
 31
0.0
  0
LINE
  5
14E
330
C5
100
AcDbEntity
  8
Rahmen (ISO)
100
AcDbLine
 10
3777.777709960937
 20
1980.0
 30
0.0
 11
3777.777709960937
 21
1983.899993896484
 31
0.0
  0
LINE
  5
14F
330
C5
100
AcDbEntity
  8
Rahmen (ISO)
100
AcDbLine
 10
3851.851806640625
 20
20.0
 30
0.0
 11
3851.851806640625
 21
16.10000014305114
 31
0.0
  0
LINE
  5
150
330
C5
100
AcDbEntity
  8
Rahmen (ISO)
100
AcDbLine
 10
3851.851806640625
 20
1980.0
 30
0.0
 11
3851.851806640625
 21
1983.899993896484
 31
0.0
  0
LINE
  5
151
330
C5
100
AcDbEntity
  8
Rahmen (ISO)
100
AcDbLine
 10
3925.925903320313
 20
20.0
 30
0.0
 11
3925.925903320313
 21
16.10000014305114
 31
0.0
  0
LINE
  5
152
330
C5
100
AcDbEntity
  8
Rahmen (ISO)
100
AcDbLine
 10
3925.925903320313
 20
1980.0
 30
0.0
 11
3925.925903320313
 21
1983.899993896484
 31
0.0
  0
MTEXT
  5
154
330
C5
100
AcDbEntity
  8
Rahmen (ISO)
100
AcDbMText
 10
3962.610423915364
 20
1980.4
 30
0.0
 40
3.499999940395355
 41
0.0
 71
     7
 72
     1
  1
1
  7
Textstil7
 73
     1
 44
1.0
1001
ACAD
1000
MTEXTBEGIN
1070
    73
1070
     1
1070
    44
1040
1.0
1070
    74
1070
     0
1000
MTEXTEND
  0
MTEXT
  5
157
330
C5
100
AcDbEntity
  8
Rahmen (ISO)
100
AcDbMText
 10
3962.610423915364
 20
16.10000005960464
 30
0.0
 40
3.499999940395355
 41
0.0
 71
     7
 72
     1
  1
1
  7
Textstil7
 73
     1
 44
1.0
1001
ACAD
1000
MTEXTBEGIN
1070
    73
1070
     1
1070
    44
1040
1.0
1070
    74
1070
     0
1000
MTEXTEND
  0
MTEXT
  5
158
330
C5
100
AcDbEntity
  8
Rahmen (ISO)
100
AcDbMText
 10
3888.192206703955
 20
1980.4
 30
0.0
 40
3.499999940395355
 41
0.0
 71
     7
 72
     1
  1
2
  7
Textstil7
 73
     1
 44
1.0
1001
ACAD
1000
MTEXTBEGIN
1070
    73
1070
     1
1070
    44
1040
1.0
1070
    74
1070
     0
1000
MTEXTEND
  0
MTEXT
  5
159
330
C5
100
AcDbEntity
  8
Rahmen (ISO)
100
AcDbMText
 10
3888.192206703955
 20
16.10000005960464
 30
0.0
 40
3.499999940395355
 41
0.0
 71
     7
 72
     1
  1
2
  7
Textstil7
 73
     1
 44
1.0
1001
ACAD
1000
MTEXTBEGIN
1070
    73
1070
     1
1070
    44
1040
1.0
1070
    74
1070
     0
1000
MTEXTEND
  0
MTEXT
  5
15A
330
C5
100
AcDbEntity
  8
Rahmen (ISO)
100
AcDbMText
 10
3814.118132629881
 20
1980.4
 30
0.0
 40
3.499999940395355
 41
0.0
 71
     7
 72
     1
  1
3
  7
Textstil7
 73
     1
 44
1.0
1001
ACAD
1000
MTEXTBEGIN
1070
    73
1070
     1
1070
    44
1040
1.0
1070
    74
1070
     0
1000
MTEXTEND
  0
MTEXT
  5
15B
330
C5
100
AcDbEntity
  8
Rahmen (ISO)
100
AcDbMText
 10
3814.118132629881
 20
16.10000005960464
 30
0.0
 40
3.499999940395355
 41
0.0
 71
     7
 72
     1
  1
3
  7
Textstil7
 73
     1
 44
1.0
1001
ACAD
1000
MTEXTBEGIN
1070
    73
1070
     1
1070
    44
1040
1.0
1070
    74
1070
     0
1000
MTEXTEND
  0
MTEXT
  5
15C
330
C5
100
AcDbEntity
  8
Rahmen (ISO)
100
AcDbMText
 10
3739.868733877386
 20
1980.4
 30
0.0
 40
3.499999940395355
 41
0.0
 71
     7
 72
     1
  1
4
  7
Textstil7
 73
     1
 44
1.976249933242796
1001
ACAD
1000
MTEXTBEGIN
1070
    73
1070
     1
1070
    44
1040
1.976249933242796
1070
    74
1070
     0
1000
MTEXTEND
  0
MTEXT
  5
15D
330
C5
100
AcDbEntity
  8
Rahmen (ISO)
100
AcDbMText
 10
3739.868733877386
 20
16.10000005960464
 30
0.0
 40
3.499999940395355
 41
0.0
 71
     7
 72
     1
  1
4
  7
Textstil7
 73
     1
 44
1.0
1001
ACAD
1000
MTEXTBEGIN
1070
    73
1070
     1
1070
    44
1040
1.0
1070
    74
1070
     0
1000
MTEXTEND
  0
MTEXT
  5
15E
330
C5
100
AcDbEntity
  8
Rahmen (ISO)
100
AcDbMText
 10
3665.969984481733
 20
1980.4
 30
0.0
 40
3.499999940395355
 41
0.0
 71
     7
 72
     1
  1
5
  7
Textstil7
 73
     1
 44
1.0
1001
ACAD
1000
MTEXTBEGIN
1070
    73
1070
     1
1070
    44
1040
1.0
1070
    74
1070
     0
1000
MTEXTEND
  0
MTEXT
  5
15F
330
C5
100
AcDbEntity
  8
Rahmen (ISO)
100
AcDbMText
 10
3665.969984481733
 20
16.10000005960464
 30
0.0
 40
3.499999940395355
 41
0.0
 71
     7
 72
     1
  1
5
  7
Textstil7
 73
     1
 44
1.0
1001
ACAD
1000
MTEXTBEGIN
1070
    73
1070
     1
1070
    44
1040
1.0
1070
    74
1070
     0
1000
MTEXTEND
  0
MTEXT
  5
160
330
C5
100
AcDbEntity
  8
Rahmen (ISO)
100
AcDbMText
 10
3591.895910407659
 20
1980.4
 30
0.0
 40
3.499999940395355
 41
0.0
 71
     7
 72
     1
  1
6
  7
Textstil7
 73
     1
 44
1.0
1001
ACAD
1000
MTEXTBEGIN
1070
    73
1070
     1
1070
    44
1040
1.0
1070
    74
1070
     0
1000
MTEXTEND
  0
MTEXT
  5
161
330
C5
100
AcDbEntity
  8
Rahmen (ISO)
100
AcDbMText
 10
3591.895910407659
 20
16.10000005960464
 30
0.0
 40
3.499999940395355
 41
0.0
 71
     7
 72
     1
  1
6
  7
Textstil7
 73
     1
 44
1.0
1001
ACAD
1000
MTEXTBEGIN
1070
    73
1070
     1
1070
    44
1040
1.0
1070
    74
1070
     0
1000
MTEXTEND
  0
MTEXT
  5
162
330
C5
100
AcDbEntity
  8
Rahmen (ISO)
100
AcDbMText
 10
3517.816953521085
 20
1980.4
 30
0.0
 40
3.499999940395355
 41
0.0
 71
     7
 72
     1
  1
7
  7
Textstil7
 73
     1
 44
1.0
1001
ACAD
1000
MTEXTBEGIN
1070
    73
1070
     1
1070
    44
1040
1.0
1070
    74
1070
     0
1000
MTEXTEND
  0
MTEXT
  5
163
330
C5
100
AcDbEntity
  8
Rahmen (ISO)
100
AcDbMText
 10
3517.816953521085
 20
16.10000005960464
 30
0.0
 40
3.499999940395355
 41
0.0
 71
     7
 72
     1
  1
7
  7
Textstil7
 73
     1
 44
1.0
1001
ACAD
1000
MTEXTBEGIN
1070
    73
1070
     1
1070
    44
1040
1.0
1070
    74
1070
     0
1000
MTEXTEND
  0
MTEXT
  5
164
330
C5
100
AcDbEntity
  8
Rahmen (ISO)
100
AcDbMText
 10
3443.747762259511
 20
1980.4
 30
0.0
 40
3.499999940395355
 41
0.0
 71
     7
 72
     1
  1
8
  7
Textstil7
 73
     1
 44
1.0
1001
ACAD
1000
MTEXTBEGIN
1070
    73
1070
     1
1070
    44
1040
1.0
1070
    74
1070
     0
1000
MTEXTEND
  0
MTEXT
  5
165
330
C5
100
AcDbEntity
  8
Rahmen (ISO)
100
AcDbMText
 10
3443.747762259511
 20
16.10000005960464
 30
0.0
 40
3.499999940395355
 41
0.0
 71
     7
 72
     1
  1
8
  7
Textstil7
 73
     1
 44
1.0
1001
ACAD
1000
MTEXTBEGIN
1070
    73
1070
     1
1070
    44
1040
1.0
1070
    74
1070
     0
1000
MTEXTEND
  0
MTEXT
  5
166
330
C5
100
AcDbEntity
  8
Rahmen (ISO)
100
AcDbMText
 10
3369.673688185437
 20
1980.4
 30
0.0
 40
3.499999940395355
 41
0.0
 71
     7
 72
     1
  1
9
  7
Textstil7
 73
     1
 44
1.0
1001
ACAD
1000
MTEXTBEGIN
1070
    73
1070
     1
1070
    44
1040
1.0
1070
    74
1070
     0
1000
MTEXTEND
  0
MTEXT
  5
167
330
C5
100
AcDbEntity
  8
Rahmen (ISO)
100
AcDbMText
 10
3369.673688185437
 20
16.10000005960464
 30
0.0
 40
3.499999940395355
 41
0.0
 71
     7
 72
     1
  1
9
  7
Textstil7
 73
     1
 44
1.0
1001
ACAD
1000
MTEXTBEGIN
1070
    73
1070
     1
1070
    44
1040
1.0
1070
    74
1070
     0
1000
MTEXTEND
  0
MTEXT
  5
168
330
C5
100
AcDbEntity
  8
Rahmen (ISO)
100
AcDbMText
 10
3294.719731239259
 20
1980.4
 30
0.0
 40
3.499999940395355
 41
0.0
 71
     7
 72
     1
  1
10
  7
Textstil7
 73
     1
 44
1.0
1001
ACAD
1000
MTEXTBEGIN
1070
    73
1070
     1
1070
    44
1040
1.0
1070
    74
1070
     0
1000
MTEXTEND
  0
MTEXT
  5
169
330
C5
100
AcDbEntity
  8
Rahmen (ISO)
100
AcDbMText
 10
3294.719731239259
 20
16.10000005960464
 30
0.0
 40
3.499999940395355
 41
0.0
 71
     7
 72
     1
  1
10
  7
Textstil7
 73
     1
 44
1.0
1001
ACAD
1000
MTEXTBEGIN
1070
    73
1070
     1
1070
    44
1040
1.0
1070
    74
1070
     0
1000
MTEXTEND
  0
MTEXT
  5
16A
330
C5
100
AcDbEntity
  8
Rahmen (ISO)
100
AcDbMText
 10
3220.994683189527
 20
1980.4
 30
0.0
 40
3.499999940395355
 41
0.0
 71
     7
 72
     1
  1
11
  7
Textstil7
 73
     1
 44
1.0
1001
ACAD
1000
MTEXTBEGIN
1070
    73
1070
     1
1070
    44
1040
1.0
1070
    74
1070
     0
1000
MTEXTEND
  0
MTEXT
  5
16B
330
C5
100
AcDbEntity
  8
Rahmen (ISO)
100
AcDbMText
 10
3220.994683189527
 20
16.10000005960464
 30
0.0
 40
3.499999940395355
 41
0.0
 71
     7
 72
     1
  1
11
  7
Textstil7
 73
     1
 44
1.0
1001
ACAD
1000
MTEXTBEGIN
1070
    73
1070
     1
1070
    44
1040
1.0
1070
    74
1070
     0
1000
MTEXTEND
  0
MTEXT
  5
16C
330
C5
100
AcDbEntity
  8
Rahmen (ISO)
100
AcDbMText
 10
3146.571583091111
 20
1980.4
 30
0.0
 40
3.499999940395355
 41
0.0
 71
     7
 72
     1
  1
12
  7
Textstil7
 73
     1
 44
1.0
1001
ACAD
1000
MTEXTBEGIN
1070
    73
1070
     1
1070
    44
1040
1.0
1070
    74
1070
     0
1000
MTEXTEND
  0
MTEXT
  5
16D
330
C5
100
AcDbEntity
  8
Rahmen (ISO)
100
AcDbMText
 10
3146.571583091111
 20
16.10000005960464
 30
0.0
 40
3.499999940395355
 41
0.0
 71
     7
 72
     1
  1
12
  7
Textstil7
 73
     1
 44
1.0
1001
ACAD
1000
MTEXTBEGIN
1070
    73
1070
     1
1070
    44
1040
1.0
1070
    74
1070
     0
1000
MTEXTEND
  0
MTEXT
  5
16E
330
C5
100
AcDbEntity
  8
Rahmen (ISO)
100
AcDbMText
 10
3072.497509017037
 20
1980.4
 30
0.0
 40
3.499999940395355
 41
0.0
 71
     7
 72
     1
  1
13
  7
Textstil7
 73
     1
 44
1.0
1001
ACAD
1000
MTEXTBEGIN
1070
    73
1070
     1
1070
    44
1040
1.0
1070
    74
1070
     0
1000
MTEXTEND
  0
MTEXT
  5
16F
330
C5
100
AcDbEntity
  8
Rahmen (ISO)
100
AcDbMText
 10
3072.497509017037
 20
16.10000005960464
 30
0.0
 40
3.499999940395355
 41
0.0
 71
     7
 72
     1
  1
13
  7
Textstil7
 73
     1
 44
1.0
1001
ACAD
1000
MTEXTBEGIN
1070
    73
1070
     1
1070
    44
1040
1.0
1070
    74
1070
     0
1000
MTEXTEND
  0
MTEXT
  5
170
330
C5
100
AcDbEntity
  8
Rahmen (ISO)
100
AcDbMText
 10
2998.248110264542
 20
1980.4
 30
0.0
 40
3.499999940395355
 41
0.0
 71
     7
 72
     1
  1
14
  7
Textstil7
 73
     1
 44
1.0
1001
ACAD
1000
MTEXTBEGIN
1070
    73
1070
     1
1070
    44
1040
1.0
1070
    74
1070
     0
1000
MTEXTEND
  0
MTEXT
  5
171
330
C5
100
AcDbEntity
  8
Rahmen (ISO)
100
AcDbMText
 10
2998.248110264542
 20
16.10000005960464
 30
0.0
 40
3.499999940395355
 41
0.0
 71
     7
 72
     1
  1
14
  7
Textstil7
 73
     1
 44
1.0
1001
ACAD
1000
MTEXTBEGIN
1070
    73
1070
     1
1070
    44
1040
1.0
1070
    74
1070
     0
1000
MTEXTEND
  0
MTEXT
  5
172
330
C5
100
AcDbEntity
  8
Rahmen (ISO)
100
AcDbMText
 10
2924.349360868889
 20
1980.4
 30
0.0
 40
3.499999940395355
 41
0.0
 71
     7
 72
     1
  1
15
  7
Textstil7
 73
     1
 44
1.0
1001
ACAD
1000
MTEXTBEGIN
1070
    73
1070
     1
1070
    44
1040
1.0
1070
    74
1070
     0
1000
MTEXTEND
  0
MTEXT
  5
173
330
C5
100
AcDbEntity
  8
Rahmen (ISO)
100
AcDbMText
 10
2924.349360868889
 20
16.10000005960464
 30
0.0
 40
3.499999940395355
 41
0.0
 71
     7
 72
     1
  1
15
  7
Textstil7
 73
     1
 44
3.637187480926513
1001
ACAD
1000
MTEXTBEGIN
1070
    73
1070
     1
1070
    44
1040
3.637187480926513
1070
    74
1070
     0
1000
MTEXTEND
  0
MTEXT
  5
174
330
C5
100
AcDbEntity
  8
Rahmen (ISO)
100
AcDbMText
 10
2850.275286794815
 20
1980.4
 30
0.0
 40
3.499999940395355
 41
0.0
 71
     7
 72
     1
  1
16
  7
Textstil7
 73
     1
 44
1.0
1001
ACAD
1000
MTEXTBEGIN
1070
    73
1070
     1
1070
    44
1040
1.0
1070
    74
1070
     0
1000
MTEXTEND
  0
MTEXT
  5
175
330
C5
100
AcDbEntity
  8
Rahmen (ISO)
100
AcDbMText
 10
2850.275286794815
 20
16.10000005960464
 30
0.0
 40
3.499999940395355
 41
0.0
 71
     7
 72
     1
  1
16
  7
Textstil7
 73
     1
 44
1.0
1001
ACAD
1000
MTEXTBEGIN
1070
    73
1070
     1
1070
    44
1040
1.0
1070
    74
1070
     0
1000
MTEXTEND
  0
MTEXT
  5
176
330
C5
100
AcDbEntity
  8
Rahmen (ISO)
100
AcDbMText
 10
2776.201212720741
 20
1980.4
 30
0.0
 40
3.499999940395355
 41
0.0
 71
     7
 72
     1
  1
17
  7
Textstil7
 73
     1
 44
1.0
1001
ACAD
1000
MTEXTBEGIN
1070
    73
1070
     1
1070
    44
1040
1.0
1070
    74
1070
     0
1000
MTEXTEND
  0
MTEXT
  5
177
330
C5
100
AcDbEntity
  8
Rahmen (ISO)
100
AcDbMText
 10
2776.201212720741
 20
16.10000005960464
 30
0.0
 40
3.499999940395355
 41
0.0
 71
     7
 72
     1
  1
17
  7
Textstil7
 73
     1
 44
1.0
1001
ACAD
1000
MTEXTBEGIN
1070
    73
1070
     1
1070
    44
1040
1.0
1070
    74
1070
     0
1000
MTEXTEND
  0
MTEXT
  5
178
330
C5
100
AcDbEntity
  8
Rahmen (ISO)
100
AcDbMText
 10
2702.127138646668
 20
1980.4
 30
0.0
 40
3.499999940395355
 41
0.0
 71
     7
 72
     1
  1
18
  7
Textstil7
 73
     1
 44
1.0
1001
ACAD
1000
MTEXTBEGIN
1070
    73
1070
     1
1070
    44
1040
1.0
1070
    74
1070
     0
1000
MTEXTEND
  0
MTEXT
  5
179
330
C5
100
AcDbEntity
  8
Rahmen (ISO)
100
AcDbMText
 10
2702.127138646668
 20
16.10000005960464
 30
0.0
 40
3.499999940395355
 41
0.0
 71
     7
 72
     1
  1
18
  7
Textstil7
 73
     1
 44
3.637187480926513
1001
ACAD
1000
MTEXTBEGIN
1070
    73
1070
     1
1070
    44
1040
3.637187480926513
1070
    74
1070
     0
1000
MTEXTEND
  0
MTEXT
  5
17A
330
C5
100
AcDbEntity
  8
Rahmen (ISO)
100
AcDbMText
 10
2628.053064572594
 20
1980.4
 30
0.0
 40
3.499999940395355
 41
0.0
 71
     7
 72
     1
  1
19
  7
Textstil7
 73
     1
 44
1.0
1001
ACAD
1000
MTEXTBEGIN
1070
    73
1070
     1
1070
    44
1040
1.0
1070
    74
1070
     0
1000
MTEXTEND
  0
MTEXT
  5
17B
330
C5
100
AcDbEntity
  8
Rahmen (ISO)
100
AcDbMText
 10
2628.053064572594
 20
16.10000005960464
 30
0.0
 40
3.499999940395355
 41
0.0
 71
     7
 72
     1
  1
19
  7
Textstil7
 73
     1
 44
1.0
1001
ACAD
1000
MTEXTBEGIN
1070
    73
1070
     1
1070
    44
1040
1.0
1070
    74
1070
     0
1000
MTEXTEND
  0
MTEXT
  5
17C
330
C5
100
AcDbEntity
  8
Rahmen (ISO)
100
AcDbMText
 10
2553.634847435689
 20
1980.4
 30
0.0
 40
3.499999940395355
 41
0.0
 71
     7
 72
     1
  1
20
  7
Textstil7
 73
     1
 44
1.0
1001
ACAD
1000
MTEXTBEGIN
1070
    73
1070
     1
1070
    44
1040
1.0
1070
    74
1070
     0
1000
MTEXTEND
  0
MTEXT
  5
17D
330
C5
100
AcDbEntity
  8
Rahmen (ISO)
100
AcDbMText
 10
2553.634847435689
 20
16.10000005960464
 30
0.0
 40
3.499999940395355
 41
0.0
 71
     7
 72
     1
  1
20
  7
Textstil7
 73
     1
 44
1.0
1001
ACAD
1000
MTEXTBEGIN
1070
    73
1070
     1
1070
    44
1040
1.0
1070
    74
1070
     0
1000
MTEXTEND
  0
MTEXT
  5
17E
330
C5
100
AcDbEntity
  8
Rahmen (ISO)
100
AcDbMText
 10
2479.909799236946
 20
1980.4
 30
0.0
 40
3.499999940395355
 41
0.0
 71
     7
 72
     1
  1
21
  7
Textstil7
 73
     1
 44
1.0
1001
ACAD
1000
MTEXTBEGIN
1070
    73
1070
     1
1070
    44
1040
1.0
1070
    74
1070
     0
1000
MTEXTEND
  0
MTEXT
  5
17F
330
C5
100
AcDbEntity
  8
Rahmen (ISO)
100
AcDbMText
 10
2479.909799236946
 20
16.10000005960464
 30
0.0
 40
3.499999940395355
 41
0.0
 71
     7
 72
     1
  1
21
  7
Textstil7
 73
     1
 44
3.637187480926513
1001
ACAD
1000
MTEXTBEGIN
1070
    73
1070
     1
1070
    44
1040
3.637187480926513
1070
    74
1070
     0
1000
MTEXTEND
  0
MTEXT
  5
180
330
C5
100
AcDbEntity
  8
Rahmen (ISO)
100
AcDbMText
 10
2405.486699287541
 20
1980.4
 30
0.0
 40
3.499999940395355
 41
0.0
 71
     7
 72
     1
  1
22
  7
Textstil7
 73
     1
 44
1.0
1001
ACAD
1000
MTEXTBEGIN
1070
    73
1070
     1
1070
    44
1040
1.0
1070
    74
1070
     0
1000
MTEXTEND
  0
MTEXT
  5
181
330
C5
100
AcDbEntity
  8
Rahmen (ISO)
100
AcDbMText
 10
2405.486699287541
 20
16.10000005960464
 30
0.0
 40
3.499999940395355
 41
0.0
 71
     7
 72
     1
  1
22
  7
Textstil7
 73
     1
 44
1.0
1001
ACAD
1000
MTEXTBEGIN
1070
    73
1070
     1
1070
    44
1040
1.0
1070
    74
1070
     0
1000
MTEXTEND
  0
MTEXT
  5
182
330
C5
100
AcDbEntity
  8
Rahmen (ISO)
100
AcDbMText
 10
2331.412625213467
 20
1980.4
 30
0.0
 40
3.499999940395355
 41
0.0
 71
     7
 72
     1
  1
23
  7
Textstil7
 73
     1
 44
1.0
1001
ACAD
1000
MTEXTBEGIN
1070
    73
1070
     1
1070
    44
1040
1.0
1070
    74
1070
     0
1000
MTEXTEND
  0
MTEXT
  5
183
330
C5
100
AcDbEntity
  8
Rahmen (ISO)
100
AcDbMText
 10
2331.412625213467
 20
16.10000005960464
 30
0.0
 40
3.499999940395355
 41
0.0
 71
     7
 72
     1
  1
23
  7
Textstil7
 73
     1
 44
1.0
1001
ACAD
1000
MTEXTBEGIN
1070
    73
1070
     1
1070
    44
1040
1.0
1070
    74
1070
     0
1000
MTEXTEND
  0
MTEXT
  5
184
330
C5
100
AcDbEntity
  8
Rahmen (ISO)
100
AcDbMText
 10
2257.163226460972
 20
1980.4
 30
0.0
 40
3.499999940395355
 41
0.0
 71
     7
 72
     1
  1
24
  7
Textstil7
 73
     1
 44
1.0
1001
ACAD
1000
MTEXTBEGIN
1070
    73
1070
     1
1070
    44
1040
1.0
1070
    74
1070
     0
1000
MTEXTEND
  0
MTEXT
  5
185
330
C5
100
AcDbEntity
  8
Rahmen (ISO)
100
AcDbMText
 10
2257.163226460972
 20
16.10000005960464
 30
0.0
 40
3.499999940395355
 41
0.0
 71
     7
 72
     1
  1
24
  7
Textstil7
 73
     1
 44
1.0
1001
ACAD
1000
MTEXTBEGIN
1070
    73
1070
     1
1070
    44
1040
1.0
1070
    74
1070
     0
1000
MTEXTEND
  0
MTEXT
  5
186
330
C5
100
AcDbEntity
  8
Rahmen (ISO)
100
AcDbMText
 10
2183.264477065318
 20
1980.4
 30
0.0
 40
3.499999940395355
 41
0.0
 71
     7
 72
     1
  1
25
  7
Textstil7
 73
     1
 44
1.0
1001
ACAD
1000
MTEXTBEGIN
1070
    73
1070
     1
1070
    44
1040
1.0
1070
    74
1070
     0
1000
MTEXTEND
  0
MTEXT
  5
187
330
C5
100
AcDbEntity
  8
Rahmen (ISO)
100
AcDbMText
 10
2183.264477065318
 20
16.10000005960464
 30
0.0
 40
3.499999940395355
 41
0.0
 71
     7
 72
     1
  1
25
  7
Textstil7
 73
     1
 44
1.0
1001
ACAD
1000
MTEXTBEGIN
1070
    73
1070
     1
1070
    44
1040
1.0
1070
    74
1070
     0
1000
MTEXTEND
  0
MTEXT
  5
188
330
C5
100
AcDbEntity
  8
Rahmen (ISO)
100
AcDbMText
 10
2109.190402991245
 20
1980.4
 30
0.0
 40
3.499999940395355
 41
0.0
 71
     7
 72
     1
  1
26
  7
Textstil7
 73
     1
 44
1.0
1001
ACAD
1000
MTEXTBEGIN
1070
    73
1070
     1
1070
    44
1040
1.0
1070
    74
1070
     0
1000
MTEXTEND
  0
MTEXT
  5
189
330
C5
100
AcDbEntity
  8
Rahmen (ISO)
100
AcDbMText
 10
2109.190402991245
 20
16.10000005960464
 30
0.0
 40
3.499999940395355
 41
0.0
 71
     7
 72
     1
  1
26
  7
Textstil7
 73
     1
 44
1.0
1001
ACAD
1000
MTEXTBEGIN
1070
    73
1070
     1
1070
    44
1040
1.0
1070
    74
1070
     0
1000
MTEXTEND
  0
MTEXT
  5
18A
330
C5
100
AcDbEntity
  8
Rahmen (ISO)
100
AcDbMText
 10
2035.11632891717
 20
1980.4
 30
0.0
 40
3.499999940395355
 41
0.0
 71
     7
 72
     1
  1
27
  7
Textstil7
 73
     1
 44
1.0
1001
ACAD
1000
MTEXTBEGIN
1070
    73
1070
     1
1070
    44
1040
1.0
1070
    74
1070
     0
1000
MTEXTEND
  0
MTEXT
  5
18B
330
C5
100
AcDbEntity
  8
Rahmen (ISO)
100
AcDbMText
 10
2035.11632891717
 20
16.10000005960464
 30
0.0
 40
3.499999940395355
 41
0.0
 71
     7
 72
     1
  1
27
  7
Textstil7
 73
     1
 44
1.0
1001
ACAD
1000
MTEXTBEGIN
1070
    73
1070
     1
1070
    44
1040
1.0
1070
    74
1070
     0
1000
MTEXTEND
  0
MTEXT
  5
18C
330
C5
100
AcDbEntity
  8
Rahmen (ISO)
100
AcDbMText
 10
1961.042254843096
 20
1980.4
 30
0.0
 40
3.499999940395355
 41
0.0
 71
     7
 72
     1
  1
28
  7
Textstil7
 73
     1
 44
1.0
1001
ACAD
1000
MTEXTBEGIN
1070
    73
1070
     1
1070
    44
1040
1.0
1070
    74
1070
     0
1000
MTEXTEND
  0
MTEXT
  5
18D
330
C5
100
AcDbEntity
  8
Rahmen (ISO)
100
AcDbMText
 10
1961.042254843096
 20
16.10000005960464
 30
0.0
 40
3.499999940395355
 41
0.0
 71
     7
 72
     1
  1
28
  7
Textstil7
 73
     1
 44
1.0
1001
ACAD
1000
MTEXTBEGIN
1070
    73
1070
     1
1070
    44
1040
1.0
1070
    74
1070
     0
1000
MTEXTEND
  0
MTEXT
  5
18E
330
C5
100
AcDbEntity
  8
Rahmen (ISO)
100
AcDbMText
 10
1886.968180769022
 20
1980.4
 30
0.0
 40
3.499999940395355
 41
0.0
 71
     7
 72
     1
  1
29
  7
Textstil7
 73
     1
 44
1.0
1001
ACAD
1000
MTEXTBEGIN
1070
    73
1070
     1
1070
    44
1040
1.0
1070
    74
1070
     0
1000
MTEXTEND
  0
MTEXT
  5
18F
330
C5
100
AcDbEntity
  8
Rahmen (ISO)
100
AcDbMText
 10
1886.968180769022
 20
16.10000005960464
 30
0.0
 40
3.499999940395355
 41
0.0
 71
     7
 72
     1
  1
29
  7
Textstil7
 73
     1
 44
1.0
1001
ACAD
1000
MTEXTBEGIN
1070
    73
1070
     1
1070
    44
1040
1.0
1070
    74
1070
     0
1000
MTEXTEND
  0
MTEXT
  5
190
330
C5
100
AcDbEntity
  8
Rahmen (ISO)
100
AcDbMText
 10
1812.894106694947
 20
1980.4
 30
0.0
 40
3.499999940395355
 41
0.0
 71
     7
 72
     1
  1
30
  7
Textstil7
 73
     1
 44
1.0
1001
ACAD
1000
MTEXTBEGIN
1070
    73
1070
     1
1070
    44
1040
1.0
1070
    74
1070
     0
1000
MTEXTEND
  0
MTEXT
  5
191
330
C5
100
AcDbEntity
  8
Rahmen (ISO)
100
AcDbMText
 10
1812.894106694947
 20
16.10000005960464
 30
0.0
 40
3.499999940395355
 41
0.0
 71
     7
 72
     1
  1
30
  7
Textstil7
 73
     1
 44
1.0
1001
ACAD
1000
MTEXTBEGIN
1070
    73
1070
     1
1070
    44
1040
1.0
1070
    74
1070
     0
1000
MTEXTEND
  0
MTEXT
  5
192
330
C5
100
AcDbEntity
  8
Rahmen (ISO)
100
AcDbMText
 10
1739.169058496203
 20
1980.4
 30
0.0
 40
3.499999940395355
 41
0.0
 71
     7
 72
     1
  1
31
  7
Textstil7
 73
     1
 44
1.0
1001
ACAD
1000
MTEXTBEGIN
1070
    73
1070
     1
1070
    44
1040
1.0
1070
    74
1070
     0
1000
MTEXTEND
  0
MTEXT
  5
193
330
C5
100
AcDbEntity
  8
Rahmen (ISO)
100
AcDbMText
 10
1739.169058496203
 20
16.10000005960464
 30
0.0
 40
3.499999940395355
 41
0.0
 71
     7
 72
     1
  1
31
  7
Textstil7
 73
     1
 44
1.0
1001
ACAD
1000
MTEXTBEGIN
1070
    73
1070
     1
1070
    44
1040
1.0
1070
    74
1070
     0
1000
MTEXTEND
  0
MTEXT
  5
194
330
C5
100
AcDbEntity
  8
Rahmen (ISO)
100
AcDbMText
 10
1664.745958546799
 20
1980.4
 30
0.0
 40
3.499999940395355
 41
0.0
 71
     7
 72
     1
  1
32
  7
Textstil7
 73
     1
 44
1.0
1001
ACAD
1000
MTEXTBEGIN
1070
    73
1070
     1
1070
    44
1040
1.0
1070
    74
1070
     0
1000
MTEXTEND
  0
MTEXT
  5
195
330
C5
100
AcDbEntity
  8
Rahmen (ISO)
100
AcDbMText
 10
1664.745958546799
 20
16.10000005960464
 30
0.0
 40
3.499999940395355
 41
0.0
 71
     7
 72
     1
  1
32
  7
Textstil7
 73
     1
 44
1.0
1001
ACAD
1000
MTEXTBEGIN
1070
    73
1070
     1
1070
    44
1040
1.0
1070
    74
1070
     0
1000
MTEXTEND
  0
MTEXT
  5
196
330
C5
100
AcDbEntity
  8
Rahmen (ISO)
100
AcDbMText
 10
1590.671884472724
 20
1980.4
 30
0.0
 40
3.499999940395355
 41
0.0
 71
     7
 72
     1
  1
33
  7
Textstil7
 73
     1
 44
1.0
1001
ACAD
1000
MTEXTBEGIN
1070
    73
1070
     1
1070
    44
1040
1.0
1070
    74
1070
     0
1000
MTEXTEND
  0
MTEXT
  5
197
330
C5
100
AcDbEntity
  8
Rahmen (ISO)
100
AcDbMText
 10
1590.671884472724
 20
16.10000005960464
 30
0.0
 40
3.499999940395355
 41
0.0
 71
     7
 72
     1
  1
33
  7
Textstil7
 73
     1
 44
1.0
1001
ACAD
1000
MTEXTBEGIN
1070
    73
1070
     1
1070
    44
1040
1.0
1070
    74
1070
     0
1000
MTEXTEND
  0
MTEXT
  5
198
330
C5
100
AcDbEntity
  8
Rahmen (ISO)
100
AcDbMText
 10
1516.422485720229
 20
1980.4
 30
0.0
 40
3.499999940395355
 41
0.0
 71
     7
 72
     1
  1
34
  7
Textstil7
 73
     1
 44
1.0
1001
ACAD
1000
MTEXTBEGIN
1070
    73
1070
     1
1070
    44
1040
1.0
1070
    74
1070
     0
1000
MTEXTEND
  0
MTEXT
  5
199
330
C5
100
AcDbEntity
  8
Rahmen (ISO)
100
AcDbMText
 10
1516.422485720229
 20
16.10000005960464
 30
0.0
 40
3.499999940395355
 41
0.0
 71
     7
 72
     1
  1
34
  7
Textstil7
 73
     1
 44
1.0
1001
ACAD
1000
MTEXTBEGIN
1070
    73
1070
     1
1070
    44
1040
1.0
1070
    74
1070
     0
1000
MTEXTEND
  0
MTEXT
  5
19A
330
C5
100
AcDbEntity
  8
Rahmen (ISO)
100
AcDbMText
 10
1442.523736324576
 20
1980.4
 30
0.0
 40
3.499999940395355
 41
0.0
 71
     7
 72
     1
  1
35
  7
Textstil7
 73
     1
 44
1.0
1001
ACAD
1000
MTEXTBEGIN
1070
    73
1070
     1
1070
    44
1040
1.0
1070
    74
1070
     0
1000
MTEXTEND
  0
MTEXT
  5
19B
330
C5
100
AcDbEntity
  8
Rahmen (ISO)
100
AcDbMText
 10
1442.523736324576
 20
16.10000005960464
 30
0.0
 40
3.499999940395355
 41
0.0
 71
     7
 72
     1
  1
35
  7
Textstil7
 73
     1
 44
1.0
1001
ACAD
1000
MTEXTBEGIN
1070
    73
1070
     1
1070
    44
1040
1.0
1070
    74
1070
     0
1000
MTEXTEND
  0
MTEXT
  5
19C
330
C5
100
AcDbEntity
  8
Rahmen (ISO)
100
AcDbMText
 10
1368.449662250502
 20
1980.4
 30
0.0
 40
3.499999940395355
 41
0.0
 71
     7
 72
     1
  1
36
  7
Textstil7
 73
     1
 44
1.0
1001
ACAD
1000
MTEXTBEGIN
1070
    73
1070
     1
1070
    44
1040
1.0
1070
    74
1070
     0
1000
MTEXTEND
  0
MTEXT
  5
19D
330
C5
100
AcDbEntity
  8
Rahmen (ISO)
100
AcDbMText
 10
1368.449662250502
 20
16.10000005960464
 30
0.0
 40
3.499999940395355
 41
0.0
 71
     7
 72
     1
  1
36
  7
Textstil7
 73
     1
 44
1.0
1001
ACAD
1000
MTEXTBEGIN
1070
    73
1070
     1
1070
    44
1040
1.0
1070
    74
1070
     0
1000
MTEXTEND
  0
MTEXT
  5
19E
330
C5
100
AcDbEntity
  8
Rahmen (ISO)
100
AcDbMText
 10
1294.375588176428
 20
1980.4
 30
0.0
 40
3.499999940395355
 41
0.0
 71
     7
 72
     1
  1
37
  7
Textstil7
 73
     1
 44
1.0
1001
ACAD
1000
MTEXTBEGIN
1070
    73
1070
     1
1070
    44
1040
1.0
1070
    74
1070
     0
1000
MTEXTEND
  0
MTEXT
  5
19F
330
C5
100
AcDbEntity
  8
Rahmen (ISO)
100
AcDbMText
 10
1294.375588176428
 20
16.10000005960464
 30
0.0
 40
3.499999940395355
 41
0.0
 71
     7
 72
     1
  1
37
  7
Textstil7
 73
     1
 44
1.0
1001
ACAD
1000
MTEXTBEGIN
1070
    73
1070
     1
1070
    44
1040
1.0
1070
    74
1070
     0
1000
MTEXTEND
  0
MTEXT
  5
1A0
330
C5
100
AcDbEntity
  8
Rahmen (ISO)
100
AcDbMText
 10
1220.301514102354
 20
1980.4
 30
0.0
 40
3.499999940395355
 41
0.0
 71
     7
 72
     1
  1
38
  7
Textstil7
 73
     1
 44
1.0
1001
ACAD
1000
MTEXTBEGIN
1070
    73
1070
     1
1070
    44
1040
1.0
1070
    74
1070
     0
1000
MTEXTEND
  0
MTEXT
  5
1A1
330
C5
100
AcDbEntity
  8
Rahmen (ISO)
100
AcDbMText
 10
1220.301514102354
 20
16.10000005960464
 30
0.0
 40
3.499999940395355
 41
0.0
 71
     7
 72
     1
  1
38
  7
Textstil7
 73
     1
 44
1.0
1001
ACAD
1000
MTEXTBEGIN
1070
    73
1070
     1
1070
    44
1040
1.0
1070
    74
1070
     0
1000
MTEXTEND
  0
MTEXT
  5
1A2
330
C5
100
AcDbEntity
  8
Rahmen (ISO)
100
AcDbMText
 10
1146.22744002828
 20
1980.4
 30
0.0
 40
3.499999940395355
 41
0.0
 71
     7
 72
     1
  1
39
  7
Textstil7
 73
     1
 44
1.976249933242796
1001
ACAD
1000
MTEXTBEGIN
1070
    73
1070
     1
1070
    44
1040
1.976249933242796
1070
    74
1070
     0
1000
MTEXTEND
  0
MTEXT
  5
1A3
330
C5
100
AcDbEntity
  8
Rahmen (ISO)
100
AcDbMText
 10
1146.22744002828
 20
16.10000005960464
 30
0.0
 40
3.499999940395355
 41
0.0
 71
     7
 72
     1
  1
39
  7
Textstil7
 73
     1
 44
1.0
1001
ACAD
1000
MTEXTBEGIN
1070
    73
1070
     1
1070
    44
1040
1.0
1070
    74
1070
     0
1000
MTEXTEND
  0
MTEXT
  5
1A4
330
C5
100
AcDbEntity
  8
Rahmen (ISO)
100
AcDbMText
 10
1071.978041275785
 20
1980.4
 30
0.0
 40
3.499999940395355
 41
0.0
 71
     7
 72
     1
  1
40
  7
Textstil7
 73
     1
 44
1.0
1001
ACAD
1000
MTEXTBEGIN
1070
    73
1070
     1
1070
    44
1040
1.0
1070
    74
1070
     0
1000
MTEXTEND
  0
MTEXT
  5
1A5
330
C5
100
AcDbEntity
  8
Rahmen (ISO)
100
AcDbMText
 10
1071.978041275785
 20
16.10000005960464
 30
0.0
 40
3.499999940395355
 41
0.0
 71
     7
 72
     1
  1
40
  7
Textstil7
 73
     1
 44
1.0
1001
ACAD
1000
MTEXTBEGIN
1070
    73
1070
     1
1070
    44
1040
1.0
1070
    74
1070
     0
1000
MTEXTEND
  0
MTEXT
  5
1A6
330
C5
100
AcDbEntity
  8
Rahmen (ISO)
100
AcDbMText
 10
998.2529930770407
 20
1980.4
 30
0.0
 40
3.499999940395355
 41
0.0
 71
     7
 72
     1
  1
41
  7
Textstil7
 73
     1
 44
1.0
1001
ACAD
1000
MTEXTBEGIN
1070
    73
1070
     1
1070
    44
1040
1.0
1070
    74
1070
     0
1000
MTEXTEND
  0
MTEXT
  5
1A7
330
C5
100
AcDbEntity
  8
Rahmen (ISO)
100
AcDbMText
 10
998.2529930770407
 20
16.10000005960464
 30
0.0
 40
3.499999940395355
 41
0.0
 71
     7
 72
     1
  1
41
  7
Textstil7
 73
     1
 44
1.0
1001
ACAD
1000
MTEXTBEGIN
1070
    73
1070
     1
1070
    44
1040
1.0
1070
    74
1070
     0
1000
MTEXTEND
  0
MTEXT
  5
1A8
330
C5
100
AcDbEntity
  8
Rahmen (ISO)
100
AcDbMText
 10
923.8298931276368
 20
1980.4
 30
0.0
 40
3.499999940395355
 41
0.0
 71
     7
 72
     1
  1
42
  7
Textstil7
 73
     1
 44
1.0
1001
ACAD
1000
MTEXTBEGIN
1070
    73
1070
     1
1070
    44
1040
1.0
1070
    74
1070
     0
1000
MTEXTEND
  0
MTEXT
  5
1A9
330
C5
100
AcDbEntity
  8
Rahmen (ISO)
100
AcDbMText
 10
923.8298931276368
 20
16.10000005960464
 30
0.0
 40
3.499999940395355
 41
0.0
 71
     7
 72
     1
  1
42
  7
Textstil7
 73
     1
 44
1.0
1001
ACAD
1000
MTEXTBEGIN
1070
    73
1070
     1
1070
    44
1040
1.0
1070
    74
1070
     0
1000
MTEXTEND
  0
MTEXT
  5
1AA
330
C5
100
AcDbEntity
  8
Rahmen (ISO)
100
AcDbMText
 10
849.7558190535627
 20
1980.4
 30
0.0
 40
3.499999940395355
 41
0.0
 71
     7
 72
     1
  1
43
  7
Textstil7
 73
     1
 44
1.0
1001
ACAD
1000
MTEXTBEGIN
1070
    73
1070
     1
1070
    44
1040
1.0
1070
    74
1070
     0
1000
MTEXTEND
  0
MTEXT
  5
1AB
330
C5
100
AcDbEntity
  8
Rahmen (ISO)
100
AcDbMText
 10
849.7558190535627
 20
16.10000005960464
 30
0.0
 40
3.499999940395355
 41
0.0
 71
     7
 72
     1
  1
43
  7
Textstil7
 73
     1
 44
1.0
1001
ACAD
1000
MTEXTBEGIN
1070
    73
1070
     1
1070
    44
1040
1.0
1070
    74
1070
     0
1000
MTEXTEND
  0
MTEXT
  5
1AC
330
C5
100
AcDbEntity
  8
Rahmen (ISO)
100
AcDbMText
 10
775.5064203010676
 20
1980.4
 30
0.0
 40
3.499999940395355
 41
0.0
 71
     7
 72
     1
  1
44
  7
Textstil7
 73
     1
 44
1.0
1001
ACAD
1000
MTEXTBEGIN
1070
    73
1070
     1
1070
    44
1040
1.0
1070
    74
1070
     0
1000
MTEXTEND
  0
MTEXT
  5
1AD
330
C5
100
AcDbEntity
  8
Rahmen (ISO)
100
AcDbMText
 10
775.5064203010676
 20
16.10000005960464
 30
0.0
 40
3.499999940395355
 41
0.0
 71
     7
 72
     1
  1
44
  7
Textstil7
 73
     1
 44
1.0
1001
ACAD
1000
MTEXTBEGIN
1070
    73
1070
     1
1070
    44
1040
1.0
1070
    74
1070
     0
1000
MTEXTEND
  0
MTEXT
  5
1AE
330
C5
100
AcDbEntity
  8
Rahmen (ISO)
100
AcDbMText
 10
701.6076709054146
 20
1980.4
 30
0.0
 40
3.499999940395355
 41
0.0
 71
     7
 72
     1
  1
45
  7
Textstil7
 73
     1
 44
1.0
1001
ACAD
1000
MTEXTBEGIN
1070
    73
1070
     1
1070
    44
1040
1.0
1070
    74
1070
     0
1000
MTEXTEND
  0
MTEXT
  5
1AF
330
C5
100
AcDbEntity
  8
Rahmen (ISO)
100
AcDbMText
 10
701.6076709054146
 20
16.10000005960464
 30
0.0
 40
3.499999940395355
 41
0.0
 71
     7
 72
     1
  1
45
  7
Textstil7
 73
     1
 44
1.0
1001
ACAD
1000
MTEXTBEGIN
1070
    73
1070
     1
1070
    44
1040
1.0
1070
    74
1070
     0
1000
MTEXTEND
  0
MTEXT
  5
1B0
330
C5
100
AcDbEntity
  8
Rahmen (ISO)
100
AcDbMText
 10
627.5335968313406
 20
1980.4
 30
0.0
 40
3.499999940395355
 41
0.0
 71
     7
 72
     1
  1
46
  7
Textstil7
 73
     1
 44
1.0
1001
ACAD
1000
MTEXTBEGIN
1070
    73
1070
     1
1070
    44
1040
1.0
1070
    74
1070
     0
1000
MTEXTEND
  0
MTEXT
  5
1B1
330
C5
100
AcDbEntity
  8
Rahmen (ISO)
100
AcDbMText
 10
627.5335968313406
 20
16.10000005960464
 30
0.0
 40
3.499999940395355
 41
0.0
 71
     7
 72
     1
  1
46
  7
Textstil7
 73
     1
 44
1.0
1001
ACAD
1000
MTEXTBEGIN
1070
    73
1070
     1
1070
    44
1040
1.0
1070
    74
1070
     0
1000
MTEXTEND
  0
MTEXT
  5
1B2
330
C5
100
AcDbEntity
  8
Rahmen (ISO)
100
AcDbMText
 10
553.4595227572664
 20
1980.4
 30
0.0
 40
3.499999940395355
 41
0.0
 71
     7
 72
     1
  1
47
  7
Textstil7
 73
     1
 44
1.0
1001
ACAD
1000
MTEXTBEGIN
1070
    73
1070
     1
1070
    44
1040
1.0
1070
    74
1070
     0
1000
MTEXTEND
  0
MTEXT
  5
1B3
330
C5
100
AcDbEntity
  8
Rahmen (ISO)
100
AcDbMText
 10
553.4595227572664
 20
16.10000005960464
 30
0.0
 40
3.499999940395355
 41
0.0
 71
     7
 72
     1
  1
47
  7
Textstil7
 73
     1
 44
1.0
1001
ACAD
1000
MTEXTBEGIN
1070
    73
1070
     1
1070
    44
1040
1.0
1070
    74
1070
     0
1000
MTEXTEND
  0
MTEXT
  5
1B4
330
C5
100
AcDbEntity
  8
Rahmen (ISO)
100
AcDbMText
 10
479.3854486831925
 20
1980.4
 30
0.0
 40
3.499999940395355
 41
0.0
 71
     7
 72
     1
  1
48
  7
Textstil7
 73
     1
 44
1.0
1001
ACAD
1000
MTEXTBEGIN
1070
    73
1070
     1
1070
    44
1040
1.0
1070
    74
1070
     0
1000
MTEXTEND
  0
MTEXT
  5
1B5
330
C5
100
AcDbEntity
  8
Rahmen (ISO)
100
AcDbMText
 10
479.3854486831925
 20
16.10000005960464
 30
0.0
 40
3.499999940395355
 41
0.0
 71
     7
 72
     1
  1
48
  7
Textstil7
 73
     1
 44
1.0
1001
ACAD
1000
MTEXTBEGIN
1070
    73
1070
     1
1070
    44
1040
1.0
1070
    74
1070
     0
1000
MTEXTEND
  0
MTEXT
  5
1B6
330
C5
100
AcDbEntity
  8
Rahmen (ISO)
100
AcDbMText
 10
405.3113746091185
 20
1980.4
 30
0.0
 40
3.499999940395355
 41
0.0
 71
     7
 72
     1
  1
49
  7
Textstil7
 73
     1
 44
1.0
1001
ACAD
1000
MTEXTBEGIN
1070
    73
1070
     1
1070
    44
1040
1.0
1070
    74
1070
     0
1000
MTEXTEND
  0
MTEXT
  5
1B7
330
C5
100
AcDbEntity
  8
Rahmen (ISO)
100
AcDbMText
 10
405.3113746091185
 20
16.10000005960464
 30
0.0
 40
3.499999940395355
 41
0.0
 71
     7
 72
     1
  1
49
  7
Textstil7
 73
     1
 44
1.0
1001
ACAD
1000
MTEXTBEGIN
1070
    73
1070
     1
1070
    44
1040
1.0
1070
    74
1070
     0
1000
MTEXTEND
  0
MTEXT
  5
1B8
330
C5
100
AcDbEntity
  8
Rahmen (ISO)
100
AcDbMText
 10
331.4126252134655
 20
1980.4
 30
0.0
 40
3.499999940395355
 41
0.0
 71
     7
 72
     1
  1
50
  7
Textstil7
 73
     1
 44
1.0
1001
ACAD
1000
MTEXTBEGIN
1070
    73
1070
     1
1070
    44
1040
1.0
1070
    74
1070
     0
1000
MTEXTEND
  0
MTEXT
  5
1B9
330
C5
100
AcDbEntity
  8
Rahmen (ISO)
100
AcDbMText
 10
331.4126252134655
 20
16.10000005960464
 30
0.0
 40
3.499999940395355
 41
0.0
 71
     7
 72
     1
  1
50
  7
Textstil7
 73
     1
 44
1.0
1001
ACAD
1000
MTEXTBEGIN
1070
    73
1070
     1
1070
    44
1040
1.0
1070
    74
1070
     0
1000
MTEXTEND
  0
MTEXT
  5
1BA
330
C5
100
AcDbEntity
  8
Rahmen (ISO)
100
AcDbMText
 10
257.6875770147213
 20
1980.4
 30
0.0
 40
3.499999940395355
 41
0.0
 71
     7
 72
     1
  1
51
  7
Textstil7
 73
     1
 44
1.0
1001
ACAD
1000
MTEXTBEGIN
1070
    73
1070
     1
1070
    44
1040
1.0
1070
    74
1070
     0
1000
MTEXTEND
  0
MTEXT
  5
1BB
330
C5
100
AcDbEntity
  8
Rahmen (ISO)
100
AcDbMText
 10
257.6875770147213
 20
16.10000005960464
 30
0.0
 40
3.499999940395355
 41
0.0
 71
     7
 72
     1
  1
51
  7
Textstil7
 73
     1
 44
1.0
1001
ACAD
1000
MTEXTBEGIN
1070
    73
1070
     1
1070
    44
1040
1.0
1070
    74
1070
     0
1000
MTEXTEND
  0
MTEXT
  5
1BC
330
C5
100
AcDbEntity
  8
Rahmen (ISO)
100
AcDbMText
 10
183.2644770653173
 20
1980.4
 30
0.0
 40
3.499999940395355
 41
0.0
 71
     7
 72
     1
  1
52
  7
Textstil7
 73
     1
 44
1.0
1001
ACAD
1000
MTEXTBEGIN
1070
    73
1070
     1
1070
    44
1040
1.0
1070
    74
1070
     0
1000
MTEXTEND
  0
MTEXT
  5
1BD
330
C5
100
AcDbEntity
  8
Rahmen (ISO)
100
AcDbMText
 10
183.2644770653173
 20
16.10000005960464
 30
0.0
 40
3.499999940395355
 41
0.0
 71
     7
 72
     1
  1
52
  7
Textstil7
 73
     1
 44
1.0
1001
ACAD
1000
MTEXTBEGIN
1070
    73
1070
     1
1070
    44
1040
1.0
1070
    74
1070
     0
1000
MTEXTEND
  0
MTEXT
  5
1BE
330
C5
100
AcDbEntity
  8
Rahmen (ISO)
100
AcDbMText
 10
109.1904029912432
 20
1980.4
 30
0.0
 40
3.499999940395355
 41
0.0
 71
     7
 72
     1
  1
53
  7
Textstil7
 73
     1
 44
1.0
1001
ACAD
1000
MTEXTBEGIN
1070
    73
1070
     1
1070
    44
1040
1.0
1070
    74
1070
     0
1000
MTEXTEND
  0
MTEXT
  5
1BF
330
C5
100
AcDbEntity
  8
Rahmen (ISO)
100
AcDbMText
 10
109.1904029912432
 20
16.10000005960464
 30
0.0
 40
3.499999940395355
 41
0.0
 71
     7
 72
     1
  1
53
  7
Textstil7
 73
     1
 44
1.0
1001
ACAD
1000
MTEXTBEGIN
1070
    73
1070
     1
1070
    44
1040
1.0
1070
    74
1070
     0
1000
MTEXTEND
  0
MTEXT
  5
1C0
330
C5
100
AcDbEntity
  8
Rahmen (ISO)
100
AcDbMText
 10
34.94100423874813
 20
1980.4
 30
0.0
 40
3.499999940395355
 41
0.0
 71
     7
 72
     1
  1
54
  7
Textstil7
 73
     1
 44
1.0
1001
ACAD
1000
MTEXTBEGIN
1070
    73
1070
     1
1070
    44
1040
1.0
1070
    74
1070
     0
1000
MTEXTEND
  0
MTEXT
  5
1C1
330
C5
100
AcDbEntity
  8
Rahmen (ISO)
100
AcDbMText
 10
34.94100423874813
 20
16.10000005960464
 30
0.0
 40
3.499999940395355
 41
0.0
 71
     7
 72
     1
  1
54
  7
Textstil7
 73
     1
 44
1.0
1001
ACAD
1000
MTEXTBEGIN
1070
    73
1070
     1
1070
    44
1040
1.0
1070
    74
1070
     0
1000
MTEXTEND
  0
LINE
  5
1C2
330
C5
100
AcDbEntity
  8
Rahmen (ISO)
100
AcDbLine
 10
20.0
 20
71.42857074737548
 30
0.0
 11
16.10000014305114
 21
71.42857074737548
 31
0.0
  0
LINE
  5
1C3
330
C5
100
AcDbEntity
  8
Rahmen (ISO)
100
AcDbLine
 10
3980.0
 20
71.42857074737548
 30
0.0
 11
3983.900146484375
 21
71.42857074737548
 31
0.0
  0
LINE
  5
1C4
330
C5
100
AcDbEntity
  8
Rahmen (ISO)
100
AcDbLine
 10
20.0
 20
142.8571414947509
 30
0.0
 11
16.10000014305114
 21
142.8571414947509
 31
0.0
  0
LINE
  5
1C5
330
C5
100
AcDbEntity
  8
Rahmen (ISO)
100
AcDbLine
 10
3980.0
 20
142.8571414947509
 30
0.0
 11
3983.900146484375
 21
142.8571414947509
 31
0.0
  0
LINE
  5
1C6
330
C5
100
AcDbEntity
  8
Rahmen (ISO)
100
AcDbLine
 10
20.0
 20
214.2857170104981
 30
0.0
 11
16.10000014305114
 21
214.2857170104981
 31
0.0
  0
LINE
  5
1C7
330
C5
100
AcDbEntity
  8
Rahmen (ISO)
100
AcDbLine
 10
3980.0
 20
214.2857170104981
 30
0.0
 11
3983.900146484375
 21
214.2857170104981
 31
0.0
  0
LINE
  5
1C8
330
C5
100
AcDbEntity
  8
Rahmen (ISO)
100
AcDbLine
 10
20.0
 20
285.7142829895019
 30
0.0
 11
16.10000014305114
 21
285.7142829895019
 31
0.0
  0
LINE
  5
1C9
330
C5
100
AcDbEntity
  8
Rahmen (ISO)
100
AcDbLine
 10
3980.0
 20
285.7142829895019
 30
0.0
 11
3983.900146484375
 21
285.7142829895019
 31
0.0
  0
LINE
  5
1CA
330
C5
100
AcDbEntity
  8
Rahmen (ISO)
100
AcDbLine
 10
20.0
 20
357.1428680419922
 30
0.0
 11
16.10000014305114
 21
357.1428680419922
 31
0.0
  0
LINE
  5
1CB
330
C5
100
AcDbEntity
  8
Rahmen (ISO)
100
AcDbLine
 10
3980.0
 20
357.1428680419922
 30
0.0
 11
3983.900146484375
 21
357.1428680419922
 31
0.0
  0
LINE
  5
1CC
330
C5
100
AcDbEntity
  8
Rahmen (ISO)
100
AcDbLine
 10
20.0
 20
428.5714340209961
 30
0.0
 11
16.10000014305114
 21
428.5714340209961
 31
0.0
  0
LINE
  5
1CD
330
C5
100
AcDbEntity
  8
Rahmen (ISO)
100
AcDbLine
 10
3980.0
 20
428.5714340209961
 30
0.0
 11
3983.900146484375
 21
428.5714340209961
 31
0.0
  0
LINE
  5
1CE
330
C5
100
AcDbEntity
  8
Rahmen (ISO)
100
AcDbLine
 10
20.0
 20
500.0
 30
0.0
 11
16.10000014305114
 21
500.0
 31
0.0
  0
LINE
  5
1CF
330
C5
100
AcDbEntity
  8
Rahmen (ISO)
100
AcDbLine
 10
3980.0
 20
500.0
 30
0.0
 11
3983.900146484375
 21
500.0
 31
0.0
  0
LINE
  5
1D0
330
C5
100
AcDbEntity
  8
Rahmen (ISO)
100
AcDbLine
 10
20.0
 20
571.4285659790037
 30
0.0
 11
16.10000014305114
 21
571.4285659790037
 31
0.0
  0
LINE
  5
1D1
330
C5
100
AcDbEntity
  8
Rahmen (ISO)
100
AcDbLine
 10
3980.0
 20
571.4285659790037
 30
0.0
 11
3983.900146484375
 21
571.4285659790037
 31
0.0
  0
LINE
  5
1D2
330
C5
100
AcDbEntity
  8
Rahmen (ISO)
100
AcDbLine
 10
20.0
 20
642.8571319580076
 30
0.0
 11
16.10000014305114
 21
642.8571319580076
 31
0.0
  0
LINE
  5
1D3
330
C5
100
AcDbEntity
  8
Rahmen (ISO)
100
AcDbLine
 10
3980.0
 20
642.8571319580076
 30
0.0
 11
3983.900146484375
 21
642.8571319580076
 31
0.0
  0
LINE
  5
1D4
330
C5
100
AcDbEntity
  8
Rahmen (ISO)
100
AcDbLine
 10
20.0
 20
714.2857360839842
 30
0.0
 11
16.10000014305114
 21
714.2857360839842
 31
0.0
  0
LINE
  5
1D5
330
C5
100
AcDbEntity
  8
Rahmen (ISO)
100
AcDbLine
 10
3980.0
 20
714.2857360839842
 30
0.0
 11
3983.900146484375
 21
714.2857360839842
 31
0.0
  0
LINE
  5
1D6
330
C5
100
AcDbEntity
  8
Rahmen (ISO)
100
AcDbLine
 10
20.0
 20
785.7142639160156
 30
0.0
 11
16.10000014305114
 21
785.7142639160156
 31
0.0
  0
LINE
  5
1D7
330
C5
100
AcDbEntity
  8
Rahmen (ISO)
100
AcDbLine
 10
3980.0
 20
785.7142639160156
 30
0.0
 11
3983.900146484375
 21
785.7142639160156
 31
0.0
  0
LINE
  5
1D8
330
C5
100
AcDbEntity
  8
Rahmen (ISO)
100
AcDbLine
 10
20.0
 20
857.1428680419922
 30
0.0
 11
16.10000014305114
 21
857.1428680419922
 31
0.0
  0
LINE
  5
1D9
330
C5
100
AcDbEntity
  8
Rahmen (ISO)
100
AcDbLine
 10
3980.0
 20
857.1428680419922
 30
0.0
 11
3983.900146484375
 21
857.1428680419922
 31
0.0
  0
LINE
  5
1DA
330
C5
100
AcDbEntity
  8
Rahmen (ISO)
100
AcDbLine
 10
20.0
 20
928.5713958740235
 30
0.0
 11
16.10000014305114
 21
928.5713958740235
 31
0.0
  0
LINE
  5
1DB
330
C5
100
AcDbEntity
  8
Rahmen (ISO)
100
AcDbLine
 10
3980.0
 20
928.5713958740235
 30
0.0
 11
3983.900146484375
 21
928.5713958740235
 31
0.0
  0
LINE
  5
1DC
330
C5
100
AcDbEntity
  8
Rahmen (ISO)
100
AcDbLine
 10
20.0
 20
1071.428604125976
 30
0.0
 11
16.10000014305114
 21
1071.428604125976
 31
0.0
  0
LINE
  5
1DD
330
C5
100
AcDbEntity
  8
Rahmen (ISO)
100
AcDbLine
 10
3980.0
 20
1071.428604125976
 30
0.0
 11
3983.900146484375
 21
1071.428604125976
 31
0.0
  0
LINE
  5
1DE
330
C5
100
AcDbEntity
  8
Rahmen (ISO)
100
AcDbLine
 10
20.0
 20
1142.857131958008
 30
0.0
 11
16.10000014305114
 21
1142.857131958008
 31
0.0
  0
LINE
  5
1DF
330
C5
100
AcDbEntity
  8
Rahmen (ISO)
100
AcDbLine
 10
3980.0
 20
1142.857131958008
 30
0.0
 11
3983.900146484375
 21
1142.857131958008
 31
0.0
  0
LINE
  5
1E0
330
C5
100
AcDbEntity
  8
Rahmen (ISO)
100
AcDbLine
 10
20.0
 20
1214.285736083984
 30
0.0
 11
16.10000014305114
 21
1214.285736083984
 31
0.0
  0
LINE
  5
1E1
330
C5
100
AcDbEntity
  8
Rahmen (ISO)
100
AcDbLine
 10
3980.0
 20
1214.285736083984
 30
0.0
 11
3983.900146484375
 21
1214.285736083984
 31
0.0
  0
LINE
  5
1E2
330
C5
100
AcDbEntity
  8
Rahmen (ISO)
100
AcDbLine
 10
20.0
 20
1285.714263916015
 30
0.0
 11
16.10000014305114
 21
1285.714263916015
 31
0.0
  0
LINE
  5
1E3
330
C5
100
AcDbEntity
  8
Rahmen (ISO)
100
AcDbLine
 10
3980.0
 20
1285.714263916015
 30
0.0
 11
3983.900146484375
 21
1285.714263916015
 31
0.0
  0
LINE
  5
1E4
330
C5
100
AcDbEntity
  8
Rahmen (ISO)
100
AcDbLine
 10
20.0
 20
1357.142791748047
 30
0.0
 11
16.10000014305114
 21
1357.142791748047
 31
0.0
  0
LINE
  5
1E5
330
C5
100
AcDbEntity
  8
Rahmen (ISO)
100
AcDbLine
 10
3980.0
 20
1357.142791748047
 30
0.0
 11
3983.900146484375
 21
1357.142791748047
 31
0.0
  0
LINE
  5
1E6
330
C5
100
AcDbEntity
  8
Rahmen (ISO)
100
AcDbLine
 10
20.0
 20
1428.571472167968
 30
0.0
 11
16.10000014305114
 21
1428.571472167968
 31
0.0
  0
LINE
  5
1E7
330
C5
100
AcDbEntity
  8
Rahmen (ISO)
100
AcDbLine
 10
3980.0
 20
1428.571472167968
 30
0.0
 11
3983.900146484375
 21
1428.571472167968
 31
0.0
  0
LINE
  5
1E8
330
C5
100
AcDbEntity
  8
Rahmen (ISO)
100
AcDbLine
 10
20.0
 20
1500.0
 30
0.0
 11
16.10000014305114
 21
1500.0
 31
0.0
  0
LINE
  5
1E9
330
C5
100
AcDbEntity
  8
Rahmen (ISO)
100
AcDbLine
 10
3980.0
 20
1500.0
 30
0.0
 11
3983.900146484375
 21
1500.0
 31
0.0
  0
LINE
  5
1EA
330
C5
100
AcDbEntity
  8
Rahmen (ISO)
100
AcDbLine
 10
20.0
 20
1571.428527832031
 30
0.0
 11
16.10000014305114
 21
1571.428527832031
 31
0.0
  0
LINE
  5
1EB
330
C5
100
AcDbEntity
  8
Rahmen (ISO)
100
AcDbLine
 10
3980.0
 20
1571.428527832031
 30
0.0
 11
3983.900146484375
 21
1571.428527832031
 31
0.0
  0
LINE
  5
1EC
330
C5
100
AcDbEntity
  8
Rahmen (ISO)
100
AcDbLine
 10
20.0
 20
1642.857208251953
 30
0.0
 11
16.10000014305114
 21
1642.857208251953
 31
0.0
  0
LINE
  5
1ED
330
C5
100
AcDbEntity
  8
Rahmen (ISO)
100
AcDbLine
 10
3980.0
 20
1642.857208251953
 30
0.0
 11
3983.900146484375
 21
1642.857208251953
 31
0.0
  0
LINE
  5
1EE
330
C5
100
AcDbEntity
  8
Rahmen (ISO)
100
AcDbLine
 10
20.0
 20
1714.285736083984
 30
0.0
 11
16.10000014305114
 21
1714.285736083984
 31
0.0
  0
LINE
  5
1EF
330
C5
100
AcDbEntity
  8
Rahmen (ISO)
100
AcDbLine
 10
3980.0
 20
1714.285736083984
 30
0.0
 11
3983.900146484375
 21
1714.285736083984
 31
0.0
  0
LINE
  5
1F0
330
C5
100
AcDbEntity
  8
Rahmen (ISO)
100
AcDbLine
 10
20.0
 20
1785.714263916015
 30
0.0
 11
16.10000014305114
 21
1785.714263916015
 31
0.0
  0
LINE
  5
1F1
330
C5
100
AcDbEntity
  8
Rahmen (ISO)
100
AcDbLine
 10
3980.0
 20
1785.714263916015
 30
0.0
 11
3983.900146484375
 21
1785.714263916015
 31
0.0
  0
LINE
  5
1F2
330
C5
100
AcDbEntity
  8
Rahmen (ISO)
100
AcDbLine
 10
20.0
 20
1857.142791748047
 30
0.0
 11
16.10000014305114
 21
1857.142791748047
 31
0.0
  0
LINE
  5
1F3
330
C5
100
AcDbEntity
  8
Rahmen (ISO)
100
AcDbLine
 10
3980.0
 20
1857.142791748047
 30
0.0
 11
3983.900146484375
 21
1857.142791748047
 31
0.0
  0
LINE
  5
1F4
330
C5
100
AcDbEntity
  8
Rahmen (ISO)
100
AcDbLine
 10
20.0
 20
1928.571472167969
 30
0.0
 11
16.10000014305114
 21
1928.571472167969
 31
0.0
  0
LINE
  5
1F5
330
C5
100
AcDbEntity
  8
Rahmen (ISO)
100
AcDbLine
 10
3980.0
 20
1928.571472167969
 30
0.0
 11
3983.900146484375
 21
1928.571472167969
 31
0.0
  0
MTEXT
  5
1F6
330
C5
100
AcDbEntity
  8
Rahmen (ISO)
100
AcDbMText
 10
16.80266848802566
 20
33.96428574408804
 30
0.0
 40
3.499999940395355
 41
0.0
 71
     7
 72
     1
  1
A
  7
Textstil7
 73
     1
 44
1.0
1001
ACAD
1000
MTEXTBEGIN
1070
    73
1070
     1
1070
    44
1040
1.0
1070
    74
1070
     0
1000
MTEXTEND
  0
MTEXT
  5
1F7
330
C5
100
AcDbEntity
  8
Rahmen (ISO)
100
AcDbMText
 10
3981.102668428422
 20
33.96428574408804
 30
0.0
 40
3.499999940395355
 41
0.0
 71
     7
 72
     1
  1
A
  7
Textstil7
 73
     1
 44
1.0
1001
ACAD
1000
MTEXTBEGIN
1070
    73
1070
     1
1070
    44
1040
1.0
1070
    74
1070
     0
1000
MTEXTEND
  0
MTEXT
  5
1F8
330
C5
100
AcDbEntity
  8
Rahmen (ISO)
100
AcDbMText
 10
16.97799316644668
 20
105.3928571726594
 30
0.0
 40
3.499999940395355
 41
0.0
 71
     7
 72
     1
  1
B
  7
Textstil7
 73
     1
 44
1.0
1001
ACAD
1000
MTEXTBEGIN
1070
    73
1070
     1
1070
    44
1040
1.0
1070
    74
1070
     0
1000
MTEXTEND
  0
MTEXT
  5
1F9
330
C5
100
AcDbEntity
  8
Rahmen (ISO)
100
AcDbMText
 10
3981.277993106842
 20
105.3928571726594
 30
0.0
 40
3.499999940395355
 41
0.0
 71
     7
 72
     1
  1
B
  7
Textstil7
 73
     1
 44
1.0
1001
ACAD
1000
MTEXTBEGIN
1070
    73
1070
     1
1070
    44
1040
1.0
1070
    74
1070
     0
1000
MTEXTEND
  0
MTEXT
  5
1FA
330
C5
100
AcDbEntity
  8
Rahmen (ISO)
100
AcDbMText
 10
17.15331784486771
 20
176.8214286012309
 30
0.0
 40
3.499999940395355
 41
0.0
 71
     7
 72
     1
  1
C
  7
Textstil7
 73
     1
 44
1.0
1001
ACAD
1000
MTEXTBEGIN
1070
    73
1070
     1
1070
    44
1040
1.0
1070
    74
1070
     0
1000
MTEXTEND
  0
MTEXT
  5
1FB
330
C5
100
AcDbEntity
  8
Rahmen (ISO)
100
AcDbMText
 10
3981.453317785263
 20
176.8214286012309
 30
0.0
 40
3.499999940395355
 41
0.0
 71
     7
 72
     1
  1
C
  7
Textstil7
 73
     1
 44
1.0
1001
ACAD
1000
MTEXTBEGIN
1070
    73
1070
     1
1070
    44
1040
1.0
1070
    74
1070
     0
1000
MTEXTEND
  0
MTEXT
  5
1FC
330
C5
100
AcDbEntity
  8
Rahmen (ISO)
100
AcDbMText
 10
16.97799316644668
 20
248.2500000298023
 30
0.0
 40
3.499999940395355
 41
0.0
 71
     7
 72
     1
  1
D
  7
Textstil7
 73
     1
 44
1.0
1001
ACAD
1000
MTEXTBEGIN
1070
    73
1070
     1
1070
    44
1040
1.0
1070
    74
1070
     0
1000
MTEXTEND
  0
MTEXT
  5
1FD
330
C5
100
AcDbEntity
  8
Rahmen (ISO)
100
AcDbMText
 10
3981.277993106842
 20
248.2500000298023
 30
0.0
 40
3.499999940395355
 41
0.0
 71
     7
 72
     1
  1
D
  7
Textstil7
 73
     1
 44
1.0
1001
ACAD
1000
MTEXTBEGIN
1070
    73
1070
     1
1070
    44
1040
1.0
1070
    74
1070
     0
1000
MTEXTEND
  0
MTEXT
  5
1FE
330
C5
100
AcDbEntity
  8
Rahmen (ISO)
100
AcDbMText
 10
17.15331784486771
 20
319.6785714583738
 30
0.0
 40
3.499999940395355
 41
0.0
 71
     7
 72
     1
  1
E
  7
Textstil7
 73
     1
 44
1.0
1001
ACAD
1000
MTEXTBEGIN
1070
    73
1070
     1
1070
    44
1040
1.0
1070
    74
1070
     0
1000
MTEXTEND
  0
MTEXT
  5
1FF
330
C5
100
AcDbEntity
  8
Rahmen (ISO)
100
AcDbMText
 10
3981.453317785263
 20
319.6785714583738
 30
0.0
 40
3.499999940395355
 41
0.0
 71
     7
 72
     1
  1
E
  7
Textstil7
 73
     1
 44
1.0
1001
ACAD
1000
MTEXTBEGIN
1070
    73
1070
     1
1070
    44
1040
1.0
1070
    74
1070
     0
1000
MTEXTEND
  0
MTEXT
  5
200
330
C5
100
AcDbEntity
  8
Rahmen (ISO)
100
AcDbMText
 10
17.15331784486771
 20
391.1071428869452
 30
0.0
 40
3.499999940395355
 41
0.0
 71
     7
 72
     1
  1
F
  7
Textstil7
 73
     1
 44
1.0
1001
ACAD
1000
MTEXTBEGIN
1070
    73
1070
     1
1070
    44
1040
1.0
1070
    74
1070
     0
1000
MTEXTEND
  0
MTEXT
  5
201
330
C5
100
AcDbEntity
  8
Rahmen (ISO)
100
AcDbMText
 10
3981.453317785263
 20
391.1071428869452
 30
0.0
 40
3.499999940395355
 41
0.0
 71
     7
 72
     1
  1
F
  7
Textstil7
 73
     1
 44
1.0
1001
ACAD
1000
MTEXTBEGIN
1070
    73
1070
     1
1070
    44
1040
1.0
1070
    74
1070
     0
1000
MTEXTEND
  0
MTEXT
  5
202
330
C5
100
AcDbEntity
  8
Rahmen (ISO)
100
AcDbMText
 10
16.97799316644668
 20
462.5357143155166
 30
0.0
 40
3.499999940395355
 41
0.0
 71
     7
 72
     1
  1
G
  7
Textstil7
 73
     1
 44
1.0
1001
ACAD
1000
MTEXTBEGIN
1070
    73
1070
     1
1070
    44
1040
1.0
1070
    74
1070
     0
1000
MTEXTEND
  0
MTEXT
  5
203
330
C5
100
AcDbEntity
  8
Rahmen (ISO)
100
AcDbMText
 10
3981.277993106842
 20
462.5357143155166
 30
0.0
 40
3.499999940395355
 41
0.0
 71
     7
 72
     1
  1
G
  7
Textstil7
 73
     1
 44
3.112918376922606
1001
ACAD
1000
MTEXTBEGIN
1070
    73
1070
     1
1070
    44
1040
3.112918376922606
1070
    74
1070
     0
1000
MTEXTEND
  0
MTEXT
  5
204
330
C5
100
AcDbEntity
  8
Rahmen (ISO)
100
AcDbMText
 10
16.97799316644668
 20
533.9642857440881
 30
0.0
 40
3.499999940395355
 41
0.0
 71
     7
 72
     1
  1
H
  7
Textstil7
 73
     1
 44
1.0
1001
ACAD
1000
MTEXTBEGIN
1070
    73
1070
     1
1070
    44
1040
1.0
1070
    74
1070
     0
1000
MTEXTEND
  0
MTEXT
  5
205
330
C5
100
AcDbEntity
  8
Rahmen (ISO)
100
AcDbMText
 10
3981.277993106842
 20
533.9642857440881
 30
0.0
 40
3.499999940395355
 41
0.0
 71
     7
 72
     1
  1
H
  7
Textstil7
 73
     1
 44
1.0
1001
ACAD
1000
MTEXTBEGIN
1070
    73
1070
     1
1070
    44
1040
1.0
1070
    74
1070
     0
1000
MTEXTEND
  0
MTEXT
  5
206
330
C5
100
AcDbEntity
  8
Rahmen (ISO)
100
AcDbMText
 10
17.85299315154552
 20
605.3928571726595
 30
0.0
 40
3.499999940395355
 41
0.0
 71
     7
 72
     1
  1
I
  7
Textstil7
 73
     1
 44
1.0
1001
ACAD
1000
MTEXTBEGIN
1070
    73
1070
     1
1070
    44
1040
1.0
1070
    74
1070
     0
1000
MTEXTEND
  0
MTEXT
  5
207
330
C5
100
AcDbEntity
  8
Rahmen (ISO)
100
AcDbMText
 10
3982.152993091941
 20
605.3928571726595
 30
0.0
 40
3.499999940395355
 41
0.0
 71
     7
 72
     1
  1
I
  7
Textstil7
 73
     1
 44
1.0
1001
ACAD
1000
MTEXTBEGIN
1070
    73
1070
     1
1070
    44
1040
1.0
1070
    74
1070
     0
1000
MTEXTEND
  0
MTEXT
  5
208
330
C5
100
AcDbEntity
  8
Rahmen (ISO)
100
AcDbMText
 10
17.32701911628246
 20
676.821428601231
 30
0.0
 40
3.499999940395355
 41
0.0
 71
     7
 72
     1
  1
J
  7
Textstil7
 73
     1
 44
1.0
1001
ACAD
1000
MTEXTBEGIN
1070
    73
1070
     1
1070
    44
1040
1.0
1070
    74
1070
     0
1000
MTEXTEND
  0
MTEXT
  5
209
330
C5
100
AcDbEntity
  8
Rahmen (ISO)
100
AcDbMText
 10
3981.627019056679
 20
676.821428601231
 30
0.0
 40
3.499999940395355
 41
0.0
 71
     7
 72
     1
  1
J
  7
Textstil7
 73
     1
 44
1.0
1001
ACAD
1000
MTEXTBEGIN
1070
    73
1070
     1
1070
    44
1040
1.0
1070
    74
1070
     0
1000
MTEXTEND
  0
MTEXT
  5
20A
330
C5
100
AcDbEntity
  8
Rahmen (ISO)
100
AcDbMText
 10
16.97799316644668
 20
748.2500000298021
 30
0.0
 40
3.499999940395355
 41
0.0
 71
     7
 72
     1
  1
K
  7
Textstil7
 73
     1
 44
1.0
1001
ACAD
1000
MTEXTBEGIN
1070
    73
1070
     1
1070
    44
1040
1.0
1070
    74
1070
     0
1000
MTEXTEND
  0
MTEXT
  5
20B
330
C5
100
AcDbEntity
  8
Rahmen (ISO)
100
AcDbMText
 10
3981.277993106842
 20
748.2500000298021
 30
0.0
 40
3.499999940395355
 41
0.0
 71
     7
 72
     1
  1
K
  7
Textstil7
 73
     1
 44
1.0
1001
ACAD
1000
MTEXTBEGIN
1070
    73
1070
     1
1070
    44
1040
1.0
1070
    74
1070
     0
1000
MTEXTEND
  0
MTEXT
  5
20C
330
C5
100
AcDbEntity
  8
Rahmen (ISO)
100
AcDbMText
 10
17.15331784486771
 20
819.6785714583736
 30
0.0
 40
3.499999940395355
 41
0.0
 71
     7
 72
     1
  1
L
  7
Textstil7
 73
     1
 44
1.0
1001
ACAD
1000
MTEXTBEGIN
1070
    73
1070
     1
1070
    44
1040
1.0
1070
    74
1070
     0
1000
MTEXTEND
  0
MTEXT
  5
20D
330
C5
100
AcDbEntity
  8
Rahmen (ISO)
100
AcDbMText
 10
3981.453317785263
 20
819.6785714583736
 30
0.0
 40
3.499999940395355
 41
0.0
 71
     7
 72
     1
  1
L
  7
Textstil7
 73
     1
 44
1.0
1001
ACAD
1000
MTEXTBEGIN
1070
    73
1070
     1
1070
    44
1040
1.0
1070
    74
1070
     0
1000
MTEXTEND
  0
MTEXT
  5
20E
330
C5
100
AcDbEntity
  8
Rahmen (ISO)
100
AcDbMText
 10
16.80266848802566
 20
891.1071428869451
 30
0.0
 40
3.499999940395355
 41
0.0
 71
     7
 72
     1
  1
M
  7
Textstil7
 73
     1
 44
1.0
1001
ACAD
1000
MTEXTBEGIN
1070
    73
1070
     1
1070
    44
1040
1.0
1070
    74
1070
     0
1000
MTEXTEND
  0
MTEXT
  5
20F
330
C5
100
AcDbEntity
  8
Rahmen (ISO)
100
AcDbMText
 10
3981.102668428422
 20
891.1071428869451
 30
0.0
 40
3.499999940395355
 41
0.0
 71
     7
 72
     1
  1
M
  7
Textstil7
 73
     1
 44
1.0
1001
ACAD
1000
MTEXTBEGIN
1070
    73
1070
     1
1070
    44
1040
1.0
1070
    74
1070
     0
1000
MTEXTEND
  0
MTEXT
  5
210
330
C5
100
AcDbEntity
  8
Rahmen (ISO)
100
AcDbMText
 10
16.97799316644668
 20
962.5357143155163
 30
0.0
 40
3.499999940395355
 41
0.0
 71
     7
 72
     1
  1
N
  7
Textstil7
 73
     1
 44
1.0
1001
ACAD
1000
MTEXTBEGIN
1070
    73
1070
     1
1070
    44
1040
1.0
1070
    74
1070
     0
1000
MTEXTEND
  0
MTEXT
  5
211
330
C5
100
AcDbEntity
  8
Rahmen (ISO)
100
AcDbMText
 10
3981.277993106842
 20
962.5357143155163
 30
0.0
 40
3.499999940395355
 41
0.0
 71
     7
 72
     1
  1
N
  7
Textstil7
 73
     1
 44
1.0
1001
ACAD
1000
MTEXTBEGIN
1070
    73
1070
     1
1070
    44
1040
1.0
1070
    74
1070
     0
1000
MTEXTEND
  0
MTEXT
  5
212
330
C5
100
AcDbEntity
  8
Rahmen (ISO)
100
AcDbMText
 10
16.97799316644668
 20
1033.964285744088
 30
0.0
 40
3.499999940395355
 41
0.0
 71
     7
 72
     1
  1
O
  7
Textstil7
 73
     1
 44
1.0
1001
ACAD
1000
MTEXTBEGIN
1070
    73
1070
     1
1070
    44
1040
1.0
1070
    74
1070
     0
1000
MTEXTEND
  0
MTEXT
  5
213
330
C5
100
AcDbEntity
  8
Rahmen (ISO)
100
AcDbMText
 10
3981.277993106842
 20
1033.964285744088
 30
0.0
 40
3.499999940395355
 41
0.0
 71
     7
 72
     1
  1
O
  7
Textstil7
 73
     1
 44
1.0
1001
ACAD
1000
MTEXTBEGIN
1070
    73
1070
     1
1070
    44
1040
1.0
1070
    74
1070
     0
1000
MTEXTEND
  0
MTEXT
  5
214
330
C5
100
AcDbEntity
  8
Rahmen (ISO)
100
AcDbMText
 10
16.97799316644668
 20
1105.392857172659
 30
0.0
 40
3.499999940395355
 41
0.0
 71
     7
 72
     1
  1
P
  7
Textstil7
 73
     1
 44
1.0
1001
ACAD
1000
MTEXTBEGIN
1070
    73
1070
     1
1070
    44
1040
1.0
1070
    74
1070
     0
1000
MTEXTEND
  0
MTEXT
  5
215
330
C5
100
AcDbEntity
  8
Rahmen (ISO)
100
AcDbMText
 10
3981.277993106842
 20
1105.392857172659
 30
0.0
 40
3.499999940395355
 41
0.0
 71
     7
 72
     1
  1
P
  7
Textstil7
 73
     1
 44
1.0
1001
ACAD
1000
MTEXTBEGIN
1070
    73
1070
     1
1070
    44
1040
1.0
1070
    74
1070
     0
1000
MTEXTEND
  0
MTEXT
  5
216
330
C5
100
AcDbEntity
  8
Rahmen (ISO)
100
AcDbMText
 10
16.97799316644668
 20
1176.821428601231
 30
0.0
 40
3.499999940395355
 41
0.0
 71
     7
 72
     1
  1
Q
  7
Textstil7
 73
     1
 44
1.0
1001
ACAD
1000
MTEXTBEGIN
1070
    73
1070
     1
1070
    44
1040
1.0
1070
    74
1070
     0
1000
MTEXTEND
  0
MTEXT
  5
217
330
C5
100
AcDbEntity
  8
Rahmen (ISO)
100
AcDbMText
 10
3981.277993106842
 20
1176.821428601231
 30
0.0
 40
3.499999940395355
 41
0.0
 71
     7
 72
     1
  1
Q
  7
Textstil7
 73
     1
 44
1.0
1001
ACAD
1000
MTEXTBEGIN
1070
    73
1070
     1
1070
    44
1040
1.0
1070
    74
1070
     0
1000
MTEXTEND
  0
MTEXT
  5
218
330
C5
100
AcDbEntity
  8
Rahmen (ISO)
100
AcDbMText
 10
16.97799316644668
 20
1248.250000029802
 30
0.0
 40
3.499999940395355
 41
0.0
 71
     7
 72
     1
  1
R
  7
Textstil7
 73
     1
 44
1.0
1001
ACAD
1000
MTEXTBEGIN
1070
    73
1070
     1
1070
    44
1040
1.0
1070
    74
1070
     0
1000
MTEXTEND
  0
MTEXT
  5
219
330
C5
100
AcDbEntity
  8
Rahmen (ISO)
100
AcDbMText
 10
3981.277993106842
 20
1248.250000029802
 30
0.0
 40
3.499999940395355
 41
0.0
 71
     7
 72
     1
  1
R
  7
Textstil7
 73
     1
 44
1.0
1001
ACAD
1000
MTEXTBEGIN
1070
    73
1070
     1
1070
    44
1040
1.0
1070
    74
1070
     0
1000
MTEXTEND
  0
MTEXT
  5
21A
330
C5
100
AcDbEntity
  8
Rahmen (ISO)
100
AcDbMText
 10
16.97799316644668
 20
1319.678571458373
 30
0.0
 40
3.499999940395355
 41
0.0
 71
     7
 72
     1
  1
S
  7
Textstil7
 73
     1
 44
1.0
1001
ACAD
1000
MTEXTBEGIN
1070
    73
1070
     1
1070
    44
1040
1.0
1070
    74
1070
     0
1000
MTEXTEND
  0
MTEXT
  5
21B
330
C5
100
AcDbEntity
  8
Rahmen (ISO)
100
AcDbMText
 10
3981.277993106842
 20
1319.678571458373
 30
0.0
 40
3.499999940395355
 41
0.0
 71
     7
 72
     1
  1
S
  7
Textstil7
 73
     1
 44
1.0
1001
ACAD
1000
MTEXTBEGIN
1070
    73
1070
     1
1070
    44
1040
1.0
1070
    74
1070
     0
1000
MTEXTEND
  0
MTEXT
  5
21C
330
C5
100
AcDbEntity
  8
Rahmen (ISO)
100
AcDbMText
 10
16.97799316644668
 20
1391.107142886945
 30
0.0
 40
3.499999940395355
 41
0.0
 71
     7
 72
     1
  1
T
  7
Textstil7
 73
     1
 44
1.0
1001
ACAD
1000
MTEXTBEGIN
1070
    73
1070
     1
1070
    44
1040
1.0
1070
    74
1070
     0
1000
MTEXTEND
  0
MTEXT
  5
21D
330
C5
100
AcDbEntity
  8
Rahmen (ISO)
100
AcDbMText
 10
3981.277993106842
 20
1391.107142886945
 30
0.0
 40
3.499999940395355
 41
0.0
 71
     7
 72
     1
  1
T
  7
Textstil7
 73
     1
 44
1.0
1001
ACAD
1000
MTEXTBEGIN
1070
    73
1070
     1
1070
    44
1040
1.0
1070
    74
1070
     0
1000
MTEXTEND
  0
MTEXT
  5
21E
330
C5
100
AcDbEntity
  8
Rahmen (ISO)
100
AcDbMText
 10
16.97799316644668
 20
1462.535714315516
 30
0.0
 40
3.499999940395355
 41
0.0
 71
     7
 72
     1
  1
U
  7
Textstil7
 73
     1
 44
1.0
1001
ACAD
1000
MTEXTBEGIN
1070
    73
1070
     1
1070
    44
1040
1.0
1070
    74
1070
     0
1000
MTEXTEND
  0
MTEXT
  5
21F
330
C5
100
AcDbEntity
  8
Rahmen (ISO)
100
AcDbMText
 10
3981.277993106842
 20
1462.535714315516
 30
0.0
 40
3.499999940395355
 41
0.0
 71
     7
 72
     1
  1
U
  7
Textstil7
 73
     1
 44
1.0
1001
ACAD
1000
MTEXTBEGIN
1070
    73
1070
     1
1070
    44
1040
1.0
1070
    74
1070
     0
1000
MTEXTEND
  0
MTEXT
  5
220
330
C5
100
AcDbEntity
  8
Rahmen (ISO)
100
AcDbMText
 10
16.80266848802566
 20
1533.964285744088
 30
0.0
 40
3.499999940395355
 41
0.0
 71
     7
 72
     1
  1
V
  7
Textstil7
 73
     1
 44
3.536041975021361
1001
ACAD
1000
MTEXTBEGIN
1070
    73
1070
     1
1070
    44
1040
3.536041975021361
1070
    74
1070
     0
1000
MTEXTEND
  0
MTEXT
  5
221
330
C5
100
AcDbEntity
  8
Rahmen (ISO)
100
AcDbMText
 10
3981.102668428422
 20
1533.964285744088
 30
0.0
 40
3.499999940395355
 41
0.0
 71
     7
 72
     1
  1
V
  7
Textstil7
 73
     1
 44
1.0
1001
ACAD
1000
MTEXTBEGIN
1070
    73
1070
     1
1070
    44
1040
1.0
1070
    74
1070
     0
1000
MTEXTEND
  0
MTEXT
  5
222
330
C5
100
AcDbEntity
  8
Rahmen (ISO)
100
AcDbMText
 10
16.45364246368408
 20
1605.392857172659
 30
0.0
 40
3.499999940395355
 41
0.0
 71
     7
 72
     1
  1
W
  7
Textstil7
 73
     1
 44
1.0
1001
ACAD
1000
MTEXTBEGIN
1070
    73
1070
     1
1070
    44
1040
1.0
1070
    74
1070
     0
1000
MTEXTEND
  0
MTEXT
  5
223
330
C5
100
AcDbEntity
  8
Rahmen (ISO)
100
AcDbMText
 10
3980.75364240408
 20
1605.392857172659
 30
0.0
 40
3.499999940395355
 41
0.0
 71
     7
 72
     1
  1
W
  7
Textstil7
 73
     1
 44
1.0
1001
ACAD
1000
MTEXTBEGIN
1070
    73
1070
     1
1070
    44
1040
1.0
1070
    74
1070
     0
1000
MTEXTEND
  0
MTEXT
  5
224
330
C5
100
AcDbEntity
  8
Rahmen (ISO)
100
AcDbMText
 10
16.80266848802566
 20
1676.82142860123
 30
0.0
 40
3.499999940395355
 41
0.0
 71
     7
 72
     1
  1
X
  7
Textstil7
 73
     1
 44
1.0
1001
ACAD
1000
MTEXTBEGIN
1070
    73
1070
     1
1070
    44
1040
1.0
1070
    74
1070
     0
1000
MTEXTEND
  0
MTEXT
  5
225
330
C5
100
AcDbEntity
  8
Rahmen (ISO)
100
AcDbMText
 10
3981.102668428422
 20
1676.82142860123
 30
0.0
 40
3.499999940395355
 41
0.0
 71
     7
 72
     1
  1
X
  7
Textstil7
 73
     1
 44
1.0
1001
ACAD
1000
MTEXTBEGIN
1070
    73
1070
     1
1070
    44
1040
1.0
1070
    74
1070
     0
1000
MTEXTEND
  0
MTEXT
  5
226
330
C5
100
AcDbEntity
  8
Rahmen (ISO)
100
AcDbMText
 10
16.80266848802566
 20
1748.250000029802
 30
0.0
 40
3.499999940395355
 41
0.0
 71
     7
 72
     1
  1
Y
  7
Textstil7
 73
     1
 44
1.0
1001
ACAD
1000
MTEXTBEGIN
1070
    73
1070
     1
1070
    44
1040
1.0
1070
    74
1070
     0
1000
MTEXTEND
  0
MTEXT
  5
227
330
C5
100
AcDbEntity
  8
Rahmen (ISO)
100
AcDbMText
 10
3981.102668428422
 20
1748.250000029802
 30
0.0
 40
3.499999940395355
 41
0.0
 71
     7
 72
     1
  1
Y
  7
Textstil7
 73
     1
 44
1.0
1001
ACAD
1000
MTEXTBEGIN
1070
    73
1070
     1
1070
    44
1040
1.0
1070
    74
1070
     0
1000
MTEXTEND
  0
MTEXT
  5
228
330
C5
100
AcDbEntity
  8
Rahmen (ISO)
100
AcDbMText
 10
16.97799316644668
 20
1819.678571458373
 30
0.0
 40
3.499999940395355
 41
0.0
 71
     7
 72
     1
  1
Z
  7
Textstil7
 73
     1
 44
1.0
1001
ACAD
1000
MTEXTBEGIN
1070
    73
1070
     1
1070
    44
1040
1.0
1070
    74
1070
     0
1000
MTEXTEND
  0
MTEXT
  5
229
330
C5
100
AcDbEntity
  8
Rahmen (ISO)
100
AcDbMText
 10
3981.277993106842
 20
1819.678571458373
 30
0.0
 40
3.499999940395355
 41
0.0
 71
     7
 72
     1
  1
Z
  7
Textstil7
 73
     1
 44
1.0
1001
ACAD
1000
MTEXTBEGIN
1070
    73
1070
     1
1070
    44
1040
1.0
1070
    74
1070
     0
1000
MTEXTEND
  0
MTEXT
  5
22A
330
C5
100
AcDbEntity
  8
Rahmen (ISO)
100
AcDbMText
 10
13.47799322605133
 20
1891.107142886944
 30
0.0
 40
3.499999940395355
 41
0.0
 71
     7
 72
     1
  1
AA
  7
Textstil7
 73
     1
 44
1.0
1001
ACAD
1000
MTEXTBEGIN
1070
    73
1070
     1
1070
    44
1040
1.0
1070
    74
1070
     0
1000
MTEXTEND
  0
MTEXT
  5
22B
330
C5
100
AcDbEntity
  8
Rahmen (ISO)
100
AcDbMText
 10
3979.527993136644
 20
1891.107142886944
 30
0.0
 40
3.499999940395355
 41
0.0
 71
     7
 72
     1
  1
AA
  7
Textstil7
 73
     1
 44
1.0
1001
ACAD
1000
MTEXTBEGIN
1070
    73
1070
     1
1070
    44
1040
1.0
1070
    74
1070
     0
1000
MTEXTEND
  0
MTEXT
  5
22C
330
C5
100
AcDbEntity
  8
Rahmen (ISO)
100
AcDbMText
 10
13.82864258289337
 20
1962.535714315516
 30
0.0
 40
3.499999940395355
 41
0.0
 71
     7
 72
     1
  1
BB
  7
Textstil7
 73
     1
 44
1.0
1001
ACAD
1000
MTEXTBEGIN
1070
    73
1070
     1
1070
    44
1040
1.0
1070
    74
1070
     0
1000
MTEXTEND
  0
MTEXT
  5
22D
330
C5
100
AcDbEntity
  8
Rahmen (ISO)
100
AcDbMText
 10
3979.878642493487
 20
1962.535714315516
 30
0.0
 40
3.499999940395355
 41
0.0
 71
     7
 72
     1
  1
BB
  7
Textstil7
 73
     1
 44
1.0
1001
ACAD
1000
MTEXTBEGIN
1070
    73
1070
     1
1070
    44
1040
1.0
1070
    74
1070
     0
1000
MTEXTEND
  0
ENDBLK
  5
C7
330
C5
100
AcDbEntity
  8
0
100
AcDbBlockEnd
  0
BLOCK
  5
230
330
22F
100
AcDbEntity
  8
0
100
AcDbBlockBegin
  2
Schriftfelder großes schriftfeld
 70
     2
 10
0.0
 20
0.0
 30
0.0
  3
Schriftfelder großes schriftfeld
  1

  0
LINE
  5
232
330
22F
100
AcDbEntity
  8
Titel (ISO)
100
AcDbLine
 10
98.40092059607565
 20
99.828060382812
 30
0.0
 11
288.4009205960757
 21
99.82806038281204
 31
0.0
  0
LINE
  5
233
330
22F
100
AcDbEntity
  8
Titel (ISO)
100
AcDbLine
 10
288.4009205960757
 20
99.82806038281204
 30
0.0
 11
288.4009205960757
 21
155.078060382812
 31
0.0
  0
LINE
  5
234
330
22F
100
AcDbEntity
  8
Titel (ISO)
100
AcDbLine
 10
288.4009205960757
 20
155.078060382812
 30
0.0
 11
98.40092059607565
 21
155.078060382812
 31
0.0
  0
LINE
  5
235
330
22F
100
AcDbEntity
  8
Titel (ISO)
100
AcDbLine
 10
98.40092059607565
 20
155.078060382812
 30
0.0
 11
98.40092059607565
 21
99.828060382812
 31
0.0
  0
LINE
  5
236
330
22F
100
AcDbEntity
  8
Titel (ISO)
100
AcDbLine
 10
153.0009205960757
 20
99.828060382812
 30
0.0
 11
153.0009205960756
 21
155.078060382812
 31
0.0
  0
LINE
  5
237
330
22F
100
AcDbEntity
  8
Titel (ISO)
100
AcDbLine
 10
197.2009205960756
 20
99.828060382812
 30
0.0
 11
197.2009205960756
 21
155.078060382812
 31
0.0
  0
LINE
  5
238
330
22F
100
AcDbEntity
  8
Titel (ISO)
100
AcDbLine
 10
98.40092059607565
 20
138.078060382812
 30
0.0
 11
288.4009205960757
 21
138.0780603828121
 31
0.0
  0
LINE
  5
239
330
22F
100
AcDbEntity
  8
Titel (ISO)
100
AcDbLine
 10
153.0009205960757
 20
116.828060382812
 30
0.0
 11
288.4009205960757
 21
116.8280603828121
 31
0.0
  0
LINE
  5
23A
330
22F
100
AcDbEntity
  8
Titel (ISO)
100
AcDbLine
 10
197.2009205960756
 20
148.328060382812
 30
0.0
 11
288.4009205960757
 21
148.328060382812
 31
0.0
  0
LINE
  5
23B
330
22F
100
AcDbEntity
  8
Titel (ISO)
100
AcDbLine
 10
250.8
 20
148.328060382812
 30
0.0
 11
250.8
 21
155.078060382812
 31
0.0
  0
LINE
  5
23C
330
22F
100
AcDbEntity
  8
Titel (ISO)
100
AcDbLine
 10
98.4009205960757
 20
104.078060382812
 30
0.0
 11
153.0009205960757
 21
104.078060382812
 31
0.0
  0
LINE
  5
23D
330
22F
100
AcDbEntity
  8
Titel (ISO)
100
AcDbLine
 10
153.0009205960757
 20
104.078060382812
 30
0.0
 11
197.2009205960756
 21
104.078060382812
 31
0.0
  0
LINE
  5
23E
330
22F
100
AcDbEntity
  8
Titel (ISO)
100
AcDbLine
 10
197.2009205960756
 20
104.078060382812
 30
0.0
 11
288.4009205960757
 21
104.078060382812
 31
0.0
  0
LINE
  5
23F
330
22F
100
AcDbEntity
  8
Titel (ISO)
100
AcDbLine
 10
242.8009205960757
 20
99.828060382812
 30
0.0
 11
242.8009205960757
 21
104.078060382812
 31
0.0
  0
LINE
  5
240
330
22F
100
AcDbEntity
  8
Titel (ISO)
100
AcDbLine
 10
272.6009205960756
 20
104.078060382812
 30
0.0
 11
272.6009205960756
 21
116.8280603828121
 31
0.0
  0
LINE
  5
241
330
22F
100
AcDbEntity
  8
Titel (ISO)
100
AcDbLine
 10
272.6009205960756
 20
108.2190860238377
 30
0.0
 11
288.4009205960757
 21
108.2190860238377
 31
0.0
  0
LINE
  5
242
330
22F
100
AcDbEntity
  8
Titel (ISO)
100
AcDbLine
 10
153.0009205960757
 20
108.328060382812
 30
0.0
 11
98.40092059607565
 21
108.328060382812
 31
0.0
  0
LINE
  5
243
330
22F
100
AcDbEntity
  8
Titel (ISO)
100
AcDbLine
 10
98.40092059607565
 20
112.578060382812
 30
0.0
 11
153.0009205960757
 21
112.578060382812
 31
0.0
  0
LINE
  5
244
330
22F
100
AcDbEntity
  8
Titel (ISO)
100
AcDbLine
 10
98.40092059607565
 20
116.828060382812
 30
0.0
 11
153.0009205960757
 21
116.828060382812
 31
0.0
  0
LINE
  5
245
330
22F
100
AcDbEntity
  8
Titel (ISO)
100
AcDbLine
 10
98.40092059607565
 20
121.078060382812
 30
0.0
 11
153.0009205960757
 21
121.078060382812
 31
0.0
  0
LINE
  5
246
330
22F
100
AcDbEntity
  8
Titel (ISO)
100
AcDbLine
 10
153.0009205960757
 20
121.078060382812
 30
0.0
 11
197.2009205960756
 21
121.0780603828121
 31
0.0
  0
LINE
  5
247
330
22F
100
AcDbEntity
  8
Titel (ISO)
100
AcDbLine
 10
98.40092059607565
 20
125.328060382812
 30
0.0
 11
153.0009205960757
 21
125.3280603828121
 31
0.0
  0
LINE
  5
248
330
22F
100
AcDbEntity
  8
Titel (ISO)
100
AcDbLine
 10
153.0009205960757
 20
125.3280603828121
 30
0.0
 11
197.2009205960756
 21
125.3280603828121
 31
0.0
  0
LINE
  5
249
330
22F
100
AcDbEntity
  8
Titel (ISO)
100
AcDbLine
 10
98.40092059607565
 20
129.578060382812
 30
0.0
 11
153.0009205960757
 21
129.578060382812
 31
0.0
  0
LINE
  5
24A
330
22F
100
AcDbEntity
  8
Titel (ISO)
100
AcDbLine
 10
153.0009205960757
 20
129.578060382812
 30
0.0
 11
197.2009205960756
 21
129.578060382812
 31
0.0
  0
LINE
  5
24B
330
22F
100
AcDbEntity
  8
Titel (ISO)
100
AcDbLine
 10
98.40092059607565
 20
133.828060382812
 30
0.0
 11
153.0009205960757
 21
133.828060382812
 31
0.0
  0
LINE
  5
24C
330
22F
100
AcDbEntity
  8
Titel (ISO)
100
AcDbLine
 10
153.0009205960757
 20
133.828060382812
 30
0.0
 11
197.2009205960756
 21
133.828060382812
 31
0.0
  0
LINE
  5
24D
330
22F
100
AcDbEntity
  8
Titel (ISO)
100
AcDbLine
 10
106.2009205960756
 20
99.828060382812
 30
0.0
 11
106.2009205960756
 21
138.078060382812
 31
0.0
  0
LINE
  5
24E
330
22F
100
AcDbEntity
  8
Titel (ISO)
100
AcDbLine
 10
132.2009205960756
 20
99.828060382812
 30
0.0
 11
132.2009205960756
 21
138.078060382812
 31
0.0
  0
LINE
  5
24F
330
22F
100
AcDbEntity
  8
Titel (ISO)
100
AcDbLine
 10
145.2009205960756
 20
99.828060382812
 30
0.0
 11
145.2009205960756
 21
138.078060382812
 31
0.0
  0
LINE
  5
250
330
22F
100
AcDbEntity
  8
Titel (ISO)
100
AcDbLine
 10
163.4009205960756
 20
121.0780603828121
 30
0.0
 11
163.4009205960756
 21
138.0780603828121
 31
0.0
  0
LINE
  5
251
330
22F
100
AcDbEntity
  8
Titel (ISO)
100
AcDbLine
 10
179.0009205960756
 20
116.828060382812
 30
0.0
 11
179.0009205960756
 21
138.0780603828121
 31
0.0
  0
LINE
  5
252
330
22F
100
AcDbEntity
  8
Titel (ISO)
100
AcDbLine
 10
288.4009205960757
 20
127.453060382812
 30
0.0
 11
197.2009205960756
 21
127.453060382812
 31
0.0
  0
LINE
  5
253
330
22F
100
AcDbEntity
  8
Titel (ISO)
100
AcDbLine
 10
197.2009205960756
 20
148.328060382812
 30
0.0
 11
98.40092059607565
 21
148.328060382812
 31
0.0
  0
TEXT
  5
254
330
22F
100
AcDbEntity
  8
Titel (ISO)
100
AcDbText
 10
99.22592047388619
 20
101.2030603530096
 30
0.0
 40
1.500000059604644
  1
Status
  7
Notiztext (DIN)
 72
     1
 11
102.3009205960757
 21
101.953060382812
 31
0.0
100
AcDbText
 73
     2
  0
TEXT
  5
255
330
22F
100
AcDbEntity
  8
Titel (ISO)
100
AcDbText
 10
113.8759203844791
 20
101.2030603530096
 30
0.0
 40
1.500000059604644
  1
Änderungen
  7
Notiztext (DIN)
 72
     1
 11
119.2009205960756
 21
101.953060382812
 31
0.0
100
AcDbText
 73
     2
  0
TEXT
  5
256
330
22F
100
AcDbEntity
  8
Titel (ISO)
100
AcDbText
 10
135.9259204858071
 20
101.2030603530096
 30
0.0
 40
1.500000059604644
  1
Datum
  7
Notiztext (DIN)
 72
     1
 11
138.7009205960757
 21
101.953060382812
 31
0.0
100
AcDbText
 73
     2
  0
TEXT
  5
257
330
22F
100
AcDbEntity
  8
Titel (ISO)
100
AcDbText
 10
146.7759205036885
 20
101.2030603530096
 30
0.0
 40
1.500000059604644
  1
Name
  7
Notiztext (DIN)
 72
     1
 11
149.1009205960757
 21
101.953060382812
 31
0.0
100
AcDbText
 73
     2
  0
TEXT
  5
258
330
22F
100
AcDbEntity
  8
Titel (ISO)
100
AcDbText
 10
154.0009205960757
 20
130.8178331196124
 30
0.0
 40
1.500000059604644
  1
Gezeichnet
  7
Notiztext (DIN)
 11
154.0009205960757
 21
130.578060382812
 31
0.0
100
AcDbText
 73
     1
  0
TEXT
  5
259
330
22F
100
AcDbEntity
  8
Titel (ISO)
100
AcDbText
 10
154.0009205960757
 20
126.5678331196124
 30
0.0
 40
1.500000059604644
  1
Kontrolliert
  7
Notiztext (DIN)
 11
154.0009205960757
 21
126.328060382812
 31
0.0
100
AcDbText
 73
     1
  0
TEXT
  5
25A
330
22F
100
AcDbEntity
  8
Titel (ISO)
100
AcDbText
 10
154.0009205960757
 20
122.3178331196125
 30
0.0
 40
1.500000059604644
  1
Norm
  7
Notiztext (DIN)
 11
154.0009205960757
 21
122.0780603828121
 31
0.0
100
AcDbText
 73
     1
  0
TEXT
  5
25B
330
22F
100
AcDbEntity
  8
Titel (ISO)
100
AcDbText
 10
167.5009205409413
 20
135.1477573572728
 30
0.0
 40
2.000000029802321
  1
Datum
  7
Notiztext (DIN)
 72
     1
 11
171.2009205960756
 21
134.828060382812
 31
0.0
100
AcDbText
 73
     1
  0
TEXT
  5
25C
330
22F
100
AcDbEntity
  8
Titel (ISO)
100
AcDbText
 10
185.0009205498819
 20
135.1477573572728
 30
0.0
 40
2.000000029802321
  1
Name
  7
Notiztext (DIN)
 72
     1
 11
188.1009205960756
 21
134.828060382812
 31
0.0
100
AcDbText
 73
     1
  0
MTEXT
  5
25D
330
22F
100
AcDbEntity
  8
Titel (ISO)
100
AcDbMText
 10
198.8093851227821
 20
153.3314456164458
 30
0.0
 40
3.499999940395355
 41
0.0
 71
     1
 72
     1
  1
Material:\fISOCPEUR|b0|i0;
  7
Notiztext (DIN)
 73
     1
 44
1.0
1001
ACAD
1000
MTEXTBEGIN
1070
    73
1070
     1
1070
    44
1040
1.0
1070
    74
1070
     0
1000
MTEXTEND
  0
MTEXT
  5
25E
330
22F
100
AcDbEntity
  8
Titel (ISO)
100
AcDbMText
 10
251.5987992657429
 20
153.6695220851552
 30
0.0
 40
3.499999940395355
 41
0.0
 71
     1
 72
     1
  1
MID:300
  7
Notiztext (DIN)
 73
     1
 44
1.0
1001
ACAD
1000
MTEXTBEGIN
1070
    73
1070
     1
1070
    44
1040
1.0
1070
    74
1070
     0
1000
MTEXTEND
  0
MTEXT
  5
25F
330
22F
100
AcDbEntity
  8
Titel (ISO)
100
AcDbMText
 10
198.8270526432173
 20
124.5913615735509
 30
0.0
 40
5.0
 41
0.0
 71
     1
 72
     1
  1
\fISOCPEUR|b0|i0;\H5.0000;Projekt:CAD extern
  7
Notiztext (DIN)
 73
     1
 44
1.0
1001
ACAD
1000
MTEXTBEGIN
1070
    73
1070
     1
1070
    44
1040
1.0
1070
    74
1070
     0
1000
MTEXTEND
  0
MTEXT
  5
260
330
22F
100
AcDbEntity
  8
Titel (ISO)
100
AcDbMText
 10
198.6643560619287
 20
145.9477472659337
 30
0.0
 40
5.0
 41
0.0
 71
     1
 72
     1
  1
\fISOCPEUR|b0|i0;\H5.0000;Kunde:
  7
Notiztext (DIN)
 73
     1
 44
1.0
1001
ACAD
1000
MTEXTBEGIN
1070
    73
1070
     1
1070
    44
1040
1.0
1070
    74
1070
     0
1000
MTEXTEND
  0
MTEXT
  5
261
330
22F
100
AcDbEntity
  8
Titel (ISO)
100
AcDbMText
 10
154.4670869667617
 20
153.338419462863
 30
0.0
 40
3.499999940395355
 41
0.0
 71
     1
 72
     1
  1
ANr.:\fISOCPEUR|b0|i0;
  7
Notiztext (DIN)
 73
     1
 44
1.0
1001
ACAD
1000
MTEXTBEGIN
1070
    73
1070
     1
1070
    44
1040
1.0
1070
    74
1070
     0
1000
MTEXTEND
  0
MTEXT
  5
262
330
22F
100
AcDbEntity
  8
Titel (ISO)
100
AcDbMText
 10
154.1572374429555
 20
144.9594922544821
 30
0.0
 40
3.499999940395355
 41
0.0
 71
     1
 72
     1
  1
KNr.:\fISOCPEUR|b0|i0;
  7
Notiztext (DIN)
 73
     1
 44
1.0
1001
ACAD
1000
MTEXTBEGIN
1070
    73
1070
     1
1070
    44
1040
1.0
1070
    74
1070
     0
1000
MTEXTEND
  0
MTEXT
  5
263
330
22F
100
AcDbEntity
  8
Titel (ISO)
100
AcDbMText
 10
99.69756531777807
 20
147.1456483097969
 30
0.0
 40
3.499999940395355
 41
0.0
 71
     1
 72
     1
  1
Lieferant:\fISOCPEUR|b0|i0;Zangenberg
  7
Notiztext (DIN)
 73
     1
 44
1.0
1001
ACAD
1000
MTEXTBEGIN
1070
    73
1070
     1
1070
    44
1040
1.0
1070
    74
1070
     0
1000
MTEXTEND
  0
MTEXT
  5
264
102
{ACAD_XDICTIONARY
360
435
102
}
330
22F
100
AcDbEntity
  8
Titel (ISO)
100
AcDbMText
 10
99.50017649982241
 20
153.3971258610357
 30
0.0
 40
3.499999940395355
 41
0.0
 71
     1
 72
     1
  1
Ma\U+00DFstab:1:1
  7
Notiztext (DIN)
 73
     1
 44
1.0
1001
ACAD
1000
MTEXTBEGIN
1070
    73
1070
     1
1070
    44
1040
1.0
1070
    74
1070
     0
1000
MTEXTEND
  0
MTEXT
  5
265
330
22F
100
AcDbEntity
  8
Titel (ISO)
100
AcDbMText
 10
154.5665241725813
 20
115.7812574216837
 30
0.0
 40
4.000000059604643
 41
41.23190879821779
 71
     1
 72
     1
  1
\fISOCPEUR|b0|i0;\H4.0000;Axel Zangenberg\PGmbH & Co. KG
  7
Notiztext (DIN)
 73
     2
 44
1.068348169326782
1001
ACAD
1000
MTEXTBEGIN
1070
    73
1070
     2
1070
    44
1040
1.068348169326782
1070
    74
1070
     0
1000
MTEXTEND
  0
MTEXT
  5
266
330
22F
100
AcDbEntity
  8
Titel (ISO)
100
AcDbMText
 10
99.8372589388262
 20
142.7355508339425
 30
0.0
 40
3.499999940395355
 41
0.0
 71
     1
 72
     1
  1
Liefertermin:
  7
Notiztext (DIN)
 73
     1
 44
1.0
1001
ACAD
1000
MTEXTBEGIN
1070
    73
1070
     1
1070
    44
1040
1.0
1070
    74
1070
     0
1000
MTEXTEND
  0
ATTDEF
  5
267
330
22F
100
AcDbEntity
  8
Titel (ISO)
100
AcDbText
 10
277.7509205960758
 20
110.0235732033248
 30
0.0
 40
5.0
  1
1 
  7
Notiztext (DIN)
 72
     1
 11
280.5009205960757
 21
112.5235732033248
 31
0.0
100
AcDbAttributeDefinition
  3
Blattnummer
  2
Blattnummer
 70
     0
 74
     2
  0
ATTDEF
  5
268
330
22F
100
AcDbEntity
  8
Titel (ISO)
100
AcDbText
 10
257.0009205960757
 20
104.8985732033249
 30
0.0
 40
2.5
  1
Benutzerdefinierte Größe (mm)
  7
Notiztext (DIN)
 72
     1
 11
280.5009205960757
 21
106.1485732033249
 31
0.0
100
AcDbAttributeDefinition
  3
Blattgröße
  2
Blattgröße
 70
     0
 74
     2
  0
ATTDEF
  5
269
330
22F
100
AcDbEntity
  8
Titel (ISO)
100
AcDbText
 10
198.2009205960756
 20
129.7602929821155
 30
0.0
 40
5.0
  1
Optimale-Länge
  7
Notiztext (DIN)
 11
198.2009205960756
 21
132.2602929821155
 31
0.0
100
AcDbAttributeDefinition
  3
TITEL
  2
TITEL
 70
     0
 74
     2
  0
ATTDEF
  5
26A
330
22F
100
AcDbEntity
  8
Titel (ISO)
100
AcDbText
 10
198.2009205960756
 20
107.953060382812
 30
0.0
 40
5.0
  1
Alligator300 KL-Flansch
  7
Notiztext (DIN)
 11
198.2009205960756
 21
110.453060382812
 31
0.0
100
AcDbAttributeDefinition
  3
BAUTEILNUMMER
  2
BAUTEILNUMMER
 70
     0
 74
     2
  0
ATTDEF
  5
26B
330
22F
100
AcDbEntity
  8
Titel (ISO)
100
AcDbText
 10
164.4009205960756
 20
130.8977573572728
 30
0.0
 40
2.000000029802321
  1
19.12.2006
  7
Notiztext (DIN)
 11
164.4009205960756
 21
130.578060382812
 31
0.0
100
AcDbAttributeDefinition
  3
ERSTELLUNGSDATUM
  2
ERSTELLUNGSDATUM
 70
     0
 74
     1
  0
ATTDEF
  5
26C
330
22F
100
AcDbEntity
  8
Titel (ISO)
100
AcDbText
 10
164.4009205960756
 20
126.6477573572728
 30
0.0
 40
2.000000029802321
  1

  7
Notiztext (DIN)
 11
164.4009205960756
 21
126.328060382812
 31
0.0
100
AcDbAttributeDefinition
  3
KONTROLLDATUM
  2
KONTROLLDATUM
 70
     0
 74
     1
  0
ATTDEF
  5
26D
330
22F
100
AcDbEntity
  8
Titel (ISO)
100
AcDbText
 10
164.4009205960756
 20
122.3977573572729
 30
0.0
 40
2.000000029802321
  1

  7
Notiztext (DIN)
 11
164.4009205960756
 21
122.0780603828121
 31
0.0
100
AcDbAttributeDefinition
  3
GENEHM.DAT. KONSTR.
  2
GENEHM.DAT._KONSTR.
 70
     0
 74
     1
  0
ATTDEF
  5
26E
330
22F
100
AcDbEntity
  8
Titel (ISO)
100
AcDbText
 10
180.0009205960756
 20
130.8977573572729
 30
0.0
 40
2.000000029802321
  1
Reinhardt
  7
Notiztext (DIN)
 11
180.0009205960756
 21
130.5780603828121
 31
0.0
100
AcDbAttributeDefinition
  3
AUTOR
  2
AUTOR
 70
     0
 74
     1
  0
ATTDEF
  5
26F
330
22F
100
AcDbEntity
  8
Titel (ISO)
100
AcDbText
 10
180.0009205960756
 20
122.3977573572728
 30
0.0
 40
2.000000029802321
  1

  7
Notiztext (DIN)
 11
180.0009205960756
 21
122.078060382812
 31
0.0
100
AcDbAttributeDefinition
  3
KONSTR. GEN. VON
  2
KONSTR._GEN._VON
 70
     0
 74
     1
  0
ATTDEF
  5
270
330
22F
100
AcDbEntity
  8
Titel (ISO)
100
AcDbText
 10
180.0009205960756
 20
126.6477573572728
 30
0.0
 40
2.000000029802321
  1

  7
Notiztext (DIN)
 11
180.0009205960756
 21
126.328060382812
 31
0.0
100
AcDbAttributeDefinition
  3
KONTROLLIERT VON
  2
KONTROLLIERT_VON
 70
     0
 74
     1
  0
ENDBLK
  5
231
330
22F
100
AcDbEntity
  8
0
100
AcDbBlockEnd
  0
ENDSEC
  0
SECTION
  2
ENTITIES
  0
INSERT
  5
22E
330
37
100
AcDbEntity
  8
0
100
AcDbBlockReference
  2
Ränder Default Border
 10
0.0
 20
0.0
 30
0.0
  0
INSERT
  5
271
330
37
100
AcDbEntity
  8
0
100
AcDbBlockReference
 66
     1
  2
Schriftfelder großes schriftfeld
 10
3691.599079403925
 20
-79.828060382812
 30
0.0
  0
ATTRIB
  5
273
330
271
100
AcDbEntity
  8
Titel (ISO)
100
AcDbText
 10
3969.35
 20
30.19551282051287
 30
0.0
 40
5.0
  1
1 
  7
Notiztext (DIN)
 72
     1
 11
3972.1
 21
32.69551282051287
 31
0.0
100
AcDbAttribute
  2
Blattnummer
 70
     0
 74
     2
  0
ATTRIB
  5
274
330
271
100
AcDbEntity
  8
Titel (ISO)
100
AcDbText
 10
3948.6
 20
25.07051282051288
 30
0.0
 40
2.5
  1
Benutzerdefinierte Größe (mm)
  7
Notiztext (DIN)
 72
     1
 11
3972.1
 21
26.32051282051288
 31
0.0
100
AcDbAttribute
  2
Blattgröße
 70
     0
 74
     2
  0
ATTRIB
  5
275
330
271
100
AcDbEntity
  8
Titel (ISO)
100
AcDbText
 10
3889.800000000001
 20
49.93223259930353
 30
0.0
 40
5.0
  1
Optimale-Länge
  7
Notiztext (DIN)
 11
3889.800000000001
 21
52.43223259930353
 31
0.0
100
AcDbAttribute
  2
TITEL
 70
     0
 74
     2
  0
ATTRIB
  5
276
330
271
100
AcDbEntity
  8
Titel (ISO)
100
AcDbText
 10
3889.800000000001
 20
28.12500000000005
 30
0.0
 40
5.0
  1
Alligator300 KL-Flansch
  7
Notiztext (DIN)
 11
3889.800000000001
 21
30.62500000000005
 31
0.0
100
AcDbAttribute
  2
BAUTEILNUMMER
 70
     0
 74
     2
  0
ATTRIB
  5
277
330
271
100
AcDbEntity
  8
Titel (ISO)
100
AcDbText
 10
3856.0
 20
51.06969697446089
 30
0.0
 40
2.000000029802321
  1
19.12.2006
  7
Notiztext (DIN)
 11
3856.0
 21
50.75000000000006
 31
0.0
100
AcDbAttribute
  2
ERSTELLUNGSDATUM
 70
     0
 74
     1
  0
ATTRIB
  5
278
330
271
100
AcDbEntity
  8
Titel (ISO)
100
AcDbText
 10
3856.0
 20
46.81969697446088
 30
0.0
 40
2.000000029802321
  1

  7
Notiztext (DIN)
 11
3856.0
 21
46.50000000000004
 31
0.0
100
AcDbAttribute
  2
KONTROLLDATUM
 70
     0
 74
     1
  0
ATTRIB
  5
279
330
271
100
AcDbEntity
  8
Titel (ISO)
100
AcDbText
 10
3856.0
 20
42.56969697446089
 30
0.0
 40
2.000000029802321
  1

  7
Notiztext (DIN)
 11
3856.0
 21
42.25000000000007
 31
0.0
100
AcDbAttribute
  2
GENEHM.DAT._KONSTR.
 70
     0
 74
     1
  0
ATTRIB
  5
27A
330
271
100
AcDbEntity
  8
Titel (ISO)
100
AcDbText
 10
3871.599999999999
 20
51.06969697446092
 30
0.0
 40
2.000000029802321
  1
Reinhardt
  7
Notiztext (DIN)
 11
3871.599999999999
 21
50.75000000000009
 31
0.0
100
AcDbAttribute
  2
AUTOR
 70
     0
 74
     1
  0
ATTRIB
  5
27B
330
271
100
AcDbEntity
  8
Titel (ISO)
100
AcDbText
 10
3871.599999999999
 20
42.56969697446086
 30
0.0
 40
2.000000029802321
  1

  7
Notiztext (DIN)
 11
3871.599999999999
 21
42.25000000000004
 31
0.0
100
AcDbAttribute
  2
KONSTR._GEN._VON
 70
     0
 74
     1
  0
ATTRIB
  5
27C
330
271
100
AcDbEntity
  8
Titel (ISO)
100
AcDbText
 10
3871.599999999999
 20
46.81969697446088
 30
0.0
 40
2.000000029802321
  1

  7
Notiztext (DIN)
 11
3871.599999999999
 21
46.50000000000004
 31
0.0
100
AcDbAttribute
  2
KONTROLLIERT_VON
 70
     0
 74
     1
  0
SEQEND
  5
272
330
271
100
AcDbEntity
  8
0
  0
LINE
  5
27D
330
37
100
AcDbEntity
  8
Sichtbar (ISO)
100
AcDbLine
 10
2185.959846808759
 20
1526.202130907661
 30
0.0
 11
2185.959846808759
 21
1530.583299618367
 31
0.0
  0
LINE
  5
27E
330
37
100
AcDbEntity
  8
Sichtbar (ISO)
100
AcDbLine
 10
2155.959846808759
 20
1530.583299618367
 30
0.0
 11
2155.959846808759
 21
1526.202130907661
 31
0.0
  0
LINE
  5
27F
330
37
100
AcDbEntity
  8
Sichtbar (ISO)
100
AcDbLine
 10
2185.959846808759
 20
1530.583299618367
 30
0.0
 11
2185.959846808759
 21
1604.627207909899
 31
0.0
  0
LINE
  5
280
330
37
100
AcDbEntity
  8
Sichtbar (ISO)
100
AcDbLine
 10
2155.959846808759
 20
1530.583299618367
 30
0.0
 11
2155.959846808759
 21
1604.627207909899
 31
0.0
  0
LINE
  5
281
330
37
100
AcDbEntity
  8
Sichtbar (ISO)
100
AcDbLine
 10
2185.959846808759
 20
1614.87847056837
 30
0.0
 11
2185.959846808759
 21
1604.627207909899
 31
0.0
  0
LINE
  5
282
330
37
100
AcDbEntity
  8
Sichtbar (ISO)
100
AcDbLine
 10
2155.959846808759
 20
1614.87847056837
 30
0.0
 11
2155.959846808759
 21
1604.627207909899
 31
0.0
  0
LINE
  5
283
330
37
100
AcDbEntity
  8
Sichtbar (ISO)
100
AcDbLine
 10
2155.959846808759
 20
1614.87847056837
 30
0.0
 11
2185.959846808759
 21
1614.87847056837
 31
0.0
  0
LINE
  5
284
330
37
100
AcDbEntity
  8
Sichtbar (ISO)
100
AcDbLine
 10
2155.959846808759
 20
1107.37847056837
 30
0.0
 11
2155.959846808759
 21
1526.202130907661
 31
0.0
  0
LINE
  5
285
330
37
100
AcDbEntity
  8
Sichtbar (ISO)
100
AcDbLine
 10
2185.959846808759
 20
1526.202130907661
 30
0.0
 11
2185.959846808759
 21
1107.37847056837
 31
0.0
  0
LINE
  5
286
330
37
100
AcDbEntity
  8
Sichtbar (ISO)
100
AcDbLine
 10
2155.959846808759
 20
1107.37847056837
 30
0.0
 11
2185.959846808759
 21
1107.37847056837
 31
0.0
  0
LINE
  5
287
330
37
100
AcDbEntity
  8
Sichtbar (ISO)
100
AcDbLine
 10
2535.959846808746
 20
1490.557962492689
 30
0.0
 11
3121.703908899495
 21
1152.37847056837
 31
0.0
  0
LINE
  5
288
330
37
100
AcDbEntity
  8
Sichtbar (ISO)
100
AcDbLine
 10
2185.959846808759
 20
1507.37847056837
 30
0.0
 11
2222.083621921525
 21
1507.37847056837
 31
0.0
  0
LINE
  5
289
330
37
100
AcDbEntity
  8
Sichtbar (ISO)
100
AcDbLine
 10
2185.959846808759
 20
1152.37847056837
 30
0.0
 11
3121.703908899495
 21
1152.37847056837
 31
0.0
  0
LINE
  5
28A
330
37
100
AcDbEntity
  8
Sichtbar (ISO)
100
AcDbLine
 10
2535.959846808756
 20
1329.87847056837
 30
0.0
 11
2535.959846808756
 21
1579.878470568449
 31
0.0
  0
ARC
  5
28B
330
37
100
AcDbEntity
  8
Sichtbar (ISO)
100
AcDbCircle
 10
2575.959846808756
 20
1579.878470568452
 30
0.0
 40
40.0000000000126
100
AcDbArc
 50
80.00706433105341
 51
180.0
  0
LINE
  5
28C
330
37
100
AcDbEntity
  8
Sichtbar (ISO)
100
AcDbLine
 10
2582.900916954834
 20
1619.271636793422
 30
0.0
 11
2821.364260762219
 21
1577.254430377899
 31
0.0
  0
LINE
  5
28D
330
37
100
AcDbEntity
  8
Sichtbar (ISO)
100
AcDbLine
 10
2821.364260762219
 20
1577.254430377899
 30
0.0
 11
2828.305330908296
 21
1616.647596602871
 31
0.0
  0
LINE
  5
28E
330
37
100
AcDbEntity
  8
Sichtbar (ISO)
100
AcDbLine
 10
2828.305330908296
 20
1616.647596602871
 30
0.0
 11
2648.091881164719
 21
1742.834412600128
 31
0.0
  0
LINE
  5
28F
330
37
100
AcDbEntity
  8
Sichtbar (ISO)
100
AcDbLine
 10
2648.091881164719
 20
1742.834412600128
 30
0.0
 11
2348.091881164722
 21
1742.834412600108
 31
0.0
  0
LINE
  5
290
330
37
100
AcDbEntity
  8
Sichtbar (ISO)
100
AcDbLine
 10
2348.091881164722
 20
1742.834412600107
 30
0.0
 11
2185.959846808759
 21
1439.878470568381
 31
0.0
  0
LINE
  5
291
330
37
100
AcDbEntity
  8
Sichtbar (ISO)
100
AcDbLine
 10
2185.959846808759
 20
1329.878470568346
 30
0.0
 11
2535.959846808756
 21
1329.87847056837
 31
0.0
  0
LINE
  5
292
330
37
100
AcDbEntity
  8
Sichtbar (ISO)
100
AcDbLine
 10
2582.172503987749
 20
1597.061083076883
 30
0.0
 11
2954.437924813609
 21
1531.467970196452
 31
0.0
  0
ARC
  5
293
330
37
100
AcDbEntity
  8
Sichtbar (ISO)
100
AcDbCircle
 10
2956.34671910378
 20
1542.301090908315
 30
0.0
 40
11.0
100
AcDbArc
 50
260.007064331047
 51
80.00706433104697
  0
LINE
  5
294
330
37
100
AcDbEntity
  8
Sichtbar (ISO)
100
AcDbLine
 10
2958.255513393952
 20
1553.134211620179
 30
0.0
 11
2821.364260762201
 21
1577.254430377801
 31
0.0
  0
ARC
  5
295
330
37
100
AcDbEntity
  8
Sichtbar (ISO)
100
AcDbCircle
 10
2584.08129827792
 20
1607.894203788747
 30
0.0
 40
11.0
100
AcDbArc
 50
80.00706433104701
 51
260.007064331047
  0
LINE
  5
296
330
37
100
AcDbEntity
  8
Sichtbar (ISO)
100
AcDbLine
 10
2575.37334456588
 20
1530.051442292354
 30
0.0
 11
2565.875661520367
 21
1540.529706307302
 31
0.0
  0
LINE
  5
297
330
37
100
AcDbEntity
  8
Sichtbar (ISO)
100
AcDbLine
 10
2535.959846808764
 20
1531.986175385235
 30
0.0
 11
2575.37334456588
 21
1530.051442292354
 31
0.0
  0
LINE
  5
298
330
37
100
AcDbEntity
  8
Sichtbar (ISO)
100
AcDbLine
 10
2535.959846808763
 20
1552.010257286798
 30
0.0
 11
2566.365952005086
 21
1550.517679837532
 31
0.0
  0
LINE
  5
299
330
37
100
AcDbEntity
  8
Sichtbar (ISO)
100
AcDbLine
 10
2566.365952005086
 20
1550.517679837532
 30
0.0
 11
2565.875661520367
 21
1540.529706307302
 31
0.0
  0
LINE
  5
29A
330
37
100
AcDbEntity
  8
Sichtbar (ISO)
100
AcDbLine
 10
3239.573584326202
 20
1497.447125058618
 30
0.0
 11
2889.994510768138
 21
1514.607292023742
 31
0.0
  0
LINE
  5
29B
330
37
100
AcDbEntity
  8
Sichtbar (ISO)
100
AcDbLine
 10
2575.37334456588
 20
1530.051442292354
 30
0.0
 11
2889.994510768138
 21
1514.607292023742
 31
0.0
  0
LINE
  5
29C
330
37
100
AcDbEntity
  8
Sichtbar (ISO)
100
AcDbLine
 10
2890.975091737574
 20
1534.583239084203
 30
0.0
 11
2566.365952005086
 21
1550.517679837532
 31
0.0
  0
LINE
  5
29D
330
37
100
AcDbEntity
  8
Sichtbar (ISO)
100
AcDbLine
 10
2957.185338833915
 20
1531.333104905943
 30
0.0
 11
3240.554165295638
 21
1517.423072119079
 31
0.0
  0
LINE
  5
29E
330
37
100
AcDbEntity
  8
Sichtbar (ISO)
100
AcDbLine
 10
2890.975091737573
 20
1534.583239084203
 30
0.0
 11
2954.470182341019
 21
1531.466386736233
 31
0.0
  0
LINE
  5
29F
330
37
100
AcDbEntity
  8
Sichtbar (ISO)
100
AcDbLine
 10
3240.554165295638
 20
1517.423072119079
 30
0.0
 11
3239.573584326202
 21
1497.447125058618
 31
0.0
  0
LINE
  5
2A0
330
37
100
AcDbEntity
  8
Sichtbar (ISO)
100
AcDbLine
 10
2129.959846808759
 20
1107.37847056837
 30
0.0
 11
2129.959846808759
 21
1552.37847056837
 31
0.0
  0
LINE
  5
2A1
330
37
100
AcDbEntity
  8
Sichtbar (ISO)
100
AcDbLine
 10
2155.959846808759
 20
1526.202130907661
 30
0.0
 11
2155.959846808759
 21
1107.37847056837
 31
0.0
  0
LINE
  5
2A2
330
37
100
AcDbEntity
  8
Sichtbar (ISO)
100
AcDbLine
 10
2155.959846808759
 20
1107.37847056837
 30
0.0
 11
2129.959846808759
 21
1107.37847056837
 31
0.0
  0
LINE
  5
2A3
330
37
100
AcDbEntity
  8
Sichtbar (ISO)
100
AcDbLine
 10
2155.959846808759
 20
1552.37847056837
 30
0.0
 11
2129.959846808759
 21
1552.37847056837
 31
0.0
  0
LINE
  5
2A4
330
37
100
AcDbEntity
  8
Sichtbar (ISO)
100
AcDbLine
 10
1655.959846808759
 20
1107.37847056837
 30
0.0
 11
1655.959846808759
 21
1526.847767994043
 31
0.0
  0
LINE
  5
2A5
330
37
100
AcDbEntity
  8
Sichtbar (ISO)
100
AcDbLine
 10
1681.959846808759
 20
1107.37847056837
 30
0.0
 11
1681.959846808759
 21
1552.37847056837
 31
0.0
  0
LINE
  5
2A6
330
37
100
AcDbEntity
  8
Sichtbar (ISO)
100
AcDbLine
 10
1681.959846808759
 20
1107.37847056837
 30
0.0
 11
1655.959846808759
 21
1107.37847056837
 31
0.0
  0
LINE
  5
2A7
330
37
100
AcDbEntity
  8
Sichtbar (ISO)
100
AcDbLine
 10
1681.959846808759
 20
1552.37847056837
 30
0.0
 11
1655.959846808759
 21
1552.37847056837
 31
0.0
  0
LINE
  5
2A8
330
37
100
AcDbEntity
  8
Sichtbar (ISO)
100
AcDbLine
 10
1681.959846808759
 20
1491.82847056837
 30
0.0
 11
1828.959846808759
 21
1491.82847056837
 31
0.0
  0
LINE
  5
2A9
330
37
100
AcDbEntity
  8
Sichtbar (ISO)
100
AcDbLine
 10
1984.959846808759
 20
1491.82847056837
 30
0.0
 11
2129.959846808759
 21
1491.82847056837
 31
0.0
  0
LINE
  5
2AA
330
37
100
AcDbEntity
  8
Sichtbar (ISO)
100
AcDbLine
 10
1681.959846808759
 20
1167.92847056837
 30
0.0
 11
1828.959846808759
 21
1167.92847056837
 31
0.0
  0
LINE
  5
2AB
330
37
100
AcDbEntity
  8
Sichtbar (ISO)
100
AcDbLine
 10
1984.959846808759
 20
1167.92847056837
 30
0.0
 11
2129.959846808759
 21
1167.92847056837
 31
0.0
  0
LINE
  5
2AC
330
37
100
AcDbEntity
  8
Sichtbar (ISO)
100
AcDbLine
 10
1984.959846808758
 20
1559.87847056837
 30
0.0
 11
1984.959846808758
 21
1439.87847056837
 31
0.0
  0
LINE
  5
2AD
330
37
100
AcDbEntity
  8
Sichtbar (ISO)
100
AcDbLine
 10
1984.959846808758
 20
1219.87847056837
 30
0.0
 11
1984.959846808758
 21
1099.87847056837
 31
0.0
  0
LINE
  5
2AE
330
37
100
AcDbEntity
  8
Sichtbar (ISO)
100
AcDbLine
 10
1828.959846808759
 20
1559.87847056837
 30
0.0
 11
1984.959846808758
 21
1559.87847056837
 31
0.0
  0
LINE
  5
2AF
330
37
100
AcDbEntity
  8
Sichtbar (ISO)
100
AcDbLine
 10
1828.959846808759
 20
1219.87847056837
 30
0.0
 11
1984.959846808758
 21
1219.87847056837
 31
0.0
  0
LINE
  5
2B0
330
37
100
AcDbEntity
  8
Sichtbar (ISO)
100
AcDbLine
 10
1828.959846808759
 20
1099.87847056837
 30
0.0
 11
1828.959846808759
 21
1219.87847056837
 31
0.0
  0
LINE
  5
2B1
330
37
100
AcDbEntity
  8
Sichtbar (ISO)
100
AcDbLine
 10
1984.959846808758
 20
1099.87847056837
 30
0.0
 11
1828.959846808759
 21
1099.87847056837
 31
0.0
  0
LINE
  5
2B2
330
37
100
AcDbEntity
  8
Sichtbar (ISO)
100
AcDbLine
 10
1828.959846808759
 20
1439.87847056837
 30
0.0
 11
1828.959846808759
 21
1559.87847056837
 31
0.0
  0
LINE
  5
2B3
330
37
100
AcDbEntity
  8
Sichtbar (ISO)
100
AcDbLine
 10
1984.959846808758
 20
1439.87847056837
 30
0.0
 11
1828.959846808759
 21
1439.87847056837
 31
0.0
  0
LINE
  5
2B4
330
37
100
AcDbEntity
  8
Sichtbar (ISO)
100
AcDbLine
 10
1984.959846808758
 20
1219.87847056837
 30
0.0
 11
1984.959846808758
 21
1439.87847056837
 31
0.0
  0
LINE
  5
2B5
330
37
100
AcDbEntity
  8
Sichtbar (ISO)
100
AcDbLine
 10
1828.959846808759
 20
1439.87847056837
 30
0.0
 11
1828.959846808759
 21
1219.87847056837
 31
0.0
  0
LINE
  5
2B6
330
37
100
AcDbEntity
  8
Sichtbar (ISO)
100
AcDbLine
 10
1851.959846808759
 20
1661.515737871844
 30
0.0
 11
1959.959846808757
 21
1661.515737871844
 31
0.0
  0
LINE
  5
2B7
330
37
100
AcDbEntity
  8
Sichtbar (ISO)
100
AcDbLine
 10
1851.959846808759
 20
1643.515737871844
 30
0.0
 11
1851.959846808759
 21
1661.515737871844
 31
0.0
  0
LINE
  5
2B8
330
37
100
AcDbEntity
  8
Sichtbar (ISO)
100
AcDbLine
 10
1959.959846808757
 20
1643.515737871844
 30
0.0
 11
1959.959846808757
 21
1661.515737871844
 31
0.0
  0
LINE
  5
2B9
330
37
100
AcDbEntity
  8
Sichtbar (ISO)
100
AcDbLine
 10
1849.459846808758
 20
1643.515737871844
 30
0.0
 11
1962.459846808759
 21
1643.515737871844
 31
0.0
  0
LINE
  5
2BA
330
37
100
AcDbEntity
  8
Sichtbar (ISO)
100
AcDbLine
 10
1849.459846808759
 20
1640.515737871843
 30
0.0
 11
1849.459846808759
 21
1643.515737871844
 31
0.0
  0
LINE
  5
2BB
330
37
100
AcDbEntity
  8
Sichtbar (ISO)
100
AcDbLine
 10
1962.459846808759
 20
1640.515737871843
 30
0.0
 11
1962.459846808759
 21
1643.515737871844
 31
0.0
  0
LINE
  5
2BC
330
37
100
AcDbEntity
  8
Sichtbar (ISO)
100
AcDbLine
 10
1847.459846808758
 20
1626.515737871844
 30
0.0
 11
1964.459846808759
 21
1626.515737871844
 31
0.0
  0
LINE
  5
2BD
330
37
100
AcDbEntity
  8
Sichtbar (ISO)
100
AcDbLine
 10
1847.459846808758
 20
1640.515737871843
 30
0.0
 11
1964.459846808759
 21
1640.515737871843
 31
0.0
  0
LINE
  5
2BE
330
37
100
AcDbEntity
  8
Sichtbar (ISO)
100
AcDbLine
 10
1847.459846808758
 20
1626.515737871844
 30
0.0
 11
1847.459846808758
 21
1640.515737871843
 31
0.0
  0
LINE
  5
2BF
330
37
100
AcDbEntity
  8
Sichtbar (ISO)
100
AcDbLine
 10
1964.459846808759
 20
1626.515737871844
 30
0.0
 11
1964.459846808759
 21
1640.515737871843
 31
0.0
  0
LINE
  5
2C0
330
37
100
AcDbEntity
  8
Sichtbar (ISO)
100
AcDbLine
 10
1849.459846808758
 20
1598.515737871844
 30
0.0
 11
1962.459846808759
 21
1598.515737871844
 31
0.0
  0
LINE
  5
2C1
330
37
100
AcDbEntity
  8
Sichtbar (ISO)
100
AcDbLine
 10
1849.459846808759
 20
1598.515737871844
 30
0.0
 11
1849.459846808759
 21
1626.515737871844
 31
0.0
  0
LINE
  5
2C2
330
37
100
AcDbEntity
  8
Sichtbar (ISO)
100
AcDbLine
 10
1962.459846808759
 20
1598.515737871844
 30
0.0
 11
1962.459846808759
 21
1626.515737871844
 31
0.0
  0
LINE
  5
2C3
330
37
100
AcDbEntity
  8
Sichtbar (ISO)
100
AcDbLine
 10
1948.459846808759
 20
1584.515737871844
 30
0.0
 11
1863.459846808758
 21
1584.515737871844
 31
0.0
  0
LINE
  5
2C4
330
37
100
AcDbEntity
  8
Sichtbar (ISO)
100
AcDbLine
 10
1863.459846808758
 20
1584.515737871844
 30
0.0
 11
1849.459846808759
 21
1598.515737871844
 31
0.0
  0
LINE
  5
2C5
330
37
100
AcDbEntity
  8
Sichtbar (ISO)
100
AcDbLine
 10
1948.459846808759
 20
1584.515737871844
 30
0.0
 11
1962.459846808759
 21
1598.515737871844
 31
0.0
  0
LINE
  5
2C6
330
37
100
AcDbEntity
  8
Sichtbar (ISO)
100
AcDbLine
 10
1865.959846808759
 20
1571.515737871844
 30
0.0
 11
1945.959846808759
 21
1571.515737871844
 31
0.0
  0
LINE
  5
2C7
330
37
100
AcDbEntity
  8
Sichtbar (ISO)
100
AcDbLine
 10
1865.959846808759
 20
1559.87847056837
 30
0.0
 11
1865.959846808759
 21
1571.515737871844
 31
0.0
  0
LINE
  5
2C8
330
37
100
AcDbEntity
  8
Sichtbar (ISO)
100
AcDbLine
 10
1945.959846808759
 20
1559.87847056837
 30
0.0
 11
1945.959846808759
 21
1571.515737871843
 31
0.0
  0
LINE
  5
2C9
330
37
100
AcDbEntity
  8
Sichtbar (ISO)
100
AcDbLine
 10
1877.959846808759
 20
1571.515737871844
 30
0.0
 11
1877.959846808759
 21
1584.515737871844
 31
0.0
  0
LINE
  5
2CA
330
37
100
AcDbEntity
  8
Sichtbar (ISO)
100
AcDbLine
 10
1933.959846808759
 20
1571.515737871844
 30
0.0
 11
1933.959846808759
 21
1584.515737871844
 31
0.0
  0
LINE
  5
2CB
330
37
100
AcDbEntity
  8
Sichtbar (ISO)
100
AcDbLine
 10
930.9598468087584
 20
1552.37847056837
 30
0.0
 11
900.9598468087586
 21
1552.37847056837
 31
0.0
  0
LINE
  5
2CC
330
37
100
AcDbEntity
  8
Sichtbar (ISO)
100
AcDbLine
 10
930.9598468087584
 20
1774.87847056837
 30
0.0
 11
930.9598468087584
 21
1552.37847056837
 31
0.0
  0
LINE
  5
2CD
330
37
100
AcDbEntity
  8
Sichtbar (ISO)
100
AcDbLine
 10
930.9598468087584
 20
1774.87847056837
 30
0.0
 11
970.9598468087587
 21
1774.87847056837
 31
0.0
  0
LINE
  5
2CE
330
37
100
AcDbEntity
  8
Sichtbar (ISO)
100
AcDbLine
 10
900.9598468087586
 20
1329.87847056837
 30
0.0
 11
900.9598468087586
 21
1552.37847056837
 31
0.0
  0
LINE
  5
2CF
330
37
100
AcDbEntity
  8
Sichtbar (ISO)
100
AcDbLine
 10
970.9598468087587
 20
1329.87847056837
 30
0.0
 11
970.9598468087584
 21
1470.413163793922
 31
0.0
  0
LINE
  5
2D0
330
37
100
AcDbEntity
  8
Sichtbar (ISO)
100
AcDbLine
 10
1090.959846808758
 20
1774.87847056837
 30
0.0
 11
1160.959846808758
 21
1774.87847056837
 31
0.0
  0
LINE
  5
2D1
330
37
100
AcDbEntity
  8
Sichtbar (ISO)
100
AcDbLine
 10
970.9598468087584
 20
1674.878470568369
 30
0.0
 11
970.9598468087587
 21
1774.87847056837
 31
0.0
  0
LINE
  5
2D2
330
37
100
AcDbEntity
  8
Sichtbar (ISO)
100
AcDbLine
 10
970.9598468087587
 20
1267.446843337185
 30
0.0
 11
970.9598468087587
 21
1176.144543873385
 31
0.0
  0
LINE
  5
2D3
330
37
100
AcDbEntity
  8
Sichtbar (ISO)
100
AcDbLine
 10
970.9598468087587
 20
1169.030313031701
 30
0.0
 11
970.9598468087587
 21
1116.316905858643
 31
0.0
  0
LINE
  5
2D4
330
37
100
AcDbEntity
  8
Sichtbar (ISO)
100
AcDbLine
 10
970.9598468087587
 20
1113.712916642201
 30
0.0
 11
970.9598468087587
 21
1107.37847056837
 31
0.0
  0
LINE
  5
2D5
330
37
100
AcDbEntity
  8
Sichtbar (ISO)
100
AcDbLine
 10
970.9598468087587
 20
1329.878470568369
 30
0.0
 11
970.9598468087587
 21
1277.165063395313
 31
0.0
  0
LINE
  5
2D6
330
37
100
AcDbEntity
  8
Sichtbar (ISO)
100
AcDbLine
 10
900.9598468087586
 20
1329.878470568369
 30
0.0
 11
900.9598468087586
 21
1107.37847056837
 31
0.0
  0
LINE
  5
2D7
330
37
100
AcDbEntity
  8
Sichtbar (ISO)
100
AcDbLine
 10
900.9598468087583
 20
1107.37847056837
 30
0.0
 11
970.9598468087587
 21
1107.37847056837
 31
0.0
  0
LINE
  5
2D8
330
37
100
AcDbEntity
  8
Sichtbar (ISO)
100
AcDbLine
 10
970.9598468087584
 20
1470.413163793921
 30
0.0
 11
1046.959846808758
 21
1470.413163793921
 31
0.0
  0
LINE
  5
2D9
330
37
100
AcDbEntity
  8
Sichtbar (ISO)
100
AcDbLine
 10
1160.959846808758
 20
1667.866955856774
 30
0.0
 11
1160.959846808758
 21
1774.87847056837
 31
0.0
  0
LINE
  5
2DA
330
37
100
AcDbEntity
  8
Sichtbar (ISO)
100
AcDbLine
 10
1160.959846808758
 20
1667.866955856774
 30
0.0
 11
1046.959846808758
 21
1470.413163793921
 31
0.0
  0
LINE
  5
2DB
330
37
100
AcDbEntity
  8
Sichtbar (ISO)
100
AcDbLine
 10
1085.959846808759
 20
1769.878470568369
 30
0.0
 11
1090.959846808759
 21
1774.87847056837
 31
0.0
  0
LINE
  5
2DC
330
37
100
AcDbEntity
  8
Sichtbar (ISO)
100
AcDbLine
 10
1085.959846808759
 20
1769.878470568369
 30
0.0
 11
1085.959846808759
 21
1724.878470568369
 31
0.0
  0
LINE
  5
2DD
330
37
100
AcDbEntity
  8
Sichtbar (ISO)
100
AcDbLine
 10
1035.959846808758
 20
1674.878470568369
 30
0.0
 11
970.9598468087587
 21
1674.878470568369
 31
0.0
  0
ARC
  5
2DE
330
37
100
AcDbEntity
  8
Sichtbar (ISO)
100
AcDbCircle
 10
1035.959846808759
 20
1724.878470568369
 30
0.0
 40
50.0
100
AcDbArc
 50
270.0000000000002
 51
0.0
  0
LINE
  5
2DF
330
37
100
AcDbEntity
  8
Sichtbar (ISO)
100
AcDbLine
 10
970.9598468087587
 20
1277.165063395313
 30
0.0
 11
970.9598468087587
 21
1267.446843337185
 31
0.0
  0
LINE
  5
2E0
330
37
100
AcDbEntity
  8
Sichtbar (ISO)
100
AcDbLine
 10
970.9598468087587
 20
1176.144543873385
 30
0.0
 11
970.9598468087587
 21
1169.030313031701
 31
0.0
  0
LINE
  5
2E1
330
37
100
AcDbEntity
  8
Sichtbar (ISO)
100
AcDbLine
 10
970.9598468087587
 20
1116.316905858644
 30
0.0
 11
970.9598468087587
 21
1113.712916642201
 31
0.0
  0
LINE
  5
2E2
330
37
100
AcDbEntity
  8
Sichtbar (ISO)
100
AcDbLine
 10
1025.959846808758
 20
1429.87847056837
 30
0.0
 11
985.9598468087586
 21
1429.87847056837
 31
0.0
  0
LINE
  5
2E3
330
37
100
AcDbEntity
  8
Sichtbar (ISO)
100
AcDbLine
 10
985.9598468087586
 20
1429.87847056837
 30
0.0
 11
985.9598468087586
 21
1470.413163793922
 31
0.0
  0
LINE
  5
2E4
330
37
100
AcDbEntity
  8
Sichtbar (ISO)
100
AcDbLine
 10
985.9598468087586
 20
1674.87847056837
 30
0.0
 11
985.9598468087586
 21
1724.87847056837
 31
0.0
  0
LINE
  5
2E5
330
37
100
AcDbEntity
  8
Sichtbar (ISO)
100
AcDbLine
 10
1025.959846808758
 20
1675.888675712706
 30
0.0
 11
1025.959846808758
 21
1674.87847056837
 31
0.0
  0
LINE
  5
2E6
330
37
100
AcDbEntity
  8
Sichtbar (ISO)
100
AcDbLine
 10
1025.959846808758
 20
1470.413163793922
 30
0.0
 11
1025.959846808758
 21
1429.87847056837
 31
0.0
  0
LINE
  5
2E7
330
37
100
AcDbEntity
  8
Sichtbar (ISO)
100
AcDbLine
 10
985.9598468087586
 20
1329.87847056837
 30
0.0
 11
985.9598468087586
 21
1429.87847056837
 31
0.0
  0
LINE
  5
2E8
330
37
100
AcDbEntity
  8
Sichtbar (ISO)
100
AcDbLine
 10
1025.959846808758
 20
1329.87847056837
 30
0.0
 11
1025.959846808758
 21
1429.87847056837
 31
0.0
  0
LINE
  5
2E9
330
37
100
AcDbEntity
  8
Sichtbar (ISO)
100
AcDbLine
 10
1025.959846808758
 20
1329.878470568369
 30
0.0
 11
1025.959846808758
 21
1124.87847056837
 31
0.0
  0
LINE
  5
2EA
330
37
100
AcDbEntity
  8
Sichtbar (ISO)
100
AcDbLine
 10
985.9598468087586
 20
1124.87847056837
 30
0.0
 11
985.9598468087586
 21
1329.878470568369
 31
0.0
  0
LINE
  5
2EB
330
37
100
AcDbEntity
  8
Sichtbar (ISO)
100
AcDbLine
 10
985.9598468087586
 20
1124.87847056837
 30
0.0
 11
1025.959846808759
 21
1124.87847056837
 31
0.0
  0
CIRCLE
  5
2EC
330
37
100
AcDbEntity
  8
Sichtbar (ISO)
100
AcDbCircle
 10
1035.959846808758
 20
1724.878470568369
 30
0.0
 40
50.00000000000003
  0
LINE
  5
2ED
330
37
100
AcDbEntity
  8
Sichtbar (ISO)
100
AcDbLine
 10
1655.959846808759
 20
1526.847767994043
 30
0.0
 11
1655.959846808759
 21
1529.519995316178
 31
0.0
  0
LINE
  5
2EE
330
37
100
AcDbEntity
  8
Sichtbar (ISO)
100
AcDbLine
 10
1625.959846808759
 20
1529.519995316178
 30
0.0
 11
1625.959846808759
 21
1526.847767994043
 31
0.0
  0
LINE
  5
2EF
330
37
100
AcDbEntity
  8
Sichtbar (ISO)
100
AcDbLine
 10
1655.959846808759
 20
1604.627207909899
 30
0.0
 11
1655.959846808759
 21
1529.519995316178
 31
0.0
  0
LINE
  5
2F0
330
37
100
AcDbEntity
  8
Sichtbar (ISO)
100
AcDbLine
 10
1625.959846808759
 20
1604.627207909899
 30
0.0
 11
1625.959846808759
 21
1529.519995316178
 31
0.0
  0
LINE
  5
2F1
330
37
100
AcDbEntity
  8
Sichtbar (ISO)
100
AcDbLine
 10
1625.959846808759
 20
1107.37847056837
 30
0.0
 11
1625.959846808759
 21
1526.847767994043
 31
0.0
  0
LINE
  5
2F2
330
37
100
AcDbEntity
  8
Sichtbar (ISO)
100
AcDbLine
 10
1655.959846808759
 20
1107.37847056837
 30
0.0
 11
1655.959846808759
 21
1526.847767994043
 31
0.0
  0
LINE
  5
2F3
330
37
100
AcDbEntity
  8
Sichtbar (ISO)
100
AcDbLine
 10
1625.959846808759
 20
1604.627207909899
 30
0.0
 11
1625.959846808759
 21
1614.87847056837
 31
0.0
  0
LINE
  5
2F4
330
37
100
AcDbEntity
  8
Sichtbar (ISO)
100
AcDbLine
 10
1655.959846808759
 20
1604.627207909899
 30
0.0
 11
1655.959846808759
 21
1614.87847056837
 31
0.0
  0
LINE
  5
2F5
330
37
100
AcDbEntity
  8
Sichtbar (ISO)
100
AcDbLine
 10
1655.959846808759
 20
1107.37847056837
 30
0.0
 11
1625.959846808759
 21
1107.37847056837
 31
0.0
  0
LINE
  5
2F6
330
37
100
AcDbEntity
  8
Sichtbar (ISO)
100
AcDbLine
 10
1655.959846808759
 20
1614.87847056837
 30
0.0
 11
1625.959846808759
 21
1614.87847056837
 31
0.0
  0
LINE
  5
2F7
330
37
100
AcDbEntity
  8
Sichtbar (ISO)
100
AcDbLine
 10
1625.959846808759
 20
1152.378470568369
 30
0.0
 11
1025.959846808758
 21
1152.37847056837
 31
0.0
  0
LINE
  5
2F8
330
37
100
AcDbEntity
  8
Sichtbar (ISO)
100
AcDbLine
 10
1625.959846808758
 20
1507.37847056837
 30
0.0
 11
1068.301776625663
 21
1507.37847056837
 31
0.0
  0
LINE
  5
2F9
330
37
100
AcDbEntity
  8
Sichtbar (ISO)
100
AcDbLine
 10
1160.959846808758
 20
1698.567986697402
 30
0.0
 11
1625.959846808758
 21
1535.442986697402
 31
0.0
  0
ARC
  5
2FA
330
37
100
AcDbEntity
  8
Sichtbar (ISO)
100
AcDbCircle
 10
462.6037653536218
 20
1329.878470568369
 30
0.0
 40
222.5000000000008
100
AcDbArc
 50
43.08534000783159
 51
51.01401296189568
  0
ARC
  5
2FB
330
37
100
AcDbEntity
  8
Sichtbar (ISO)
100
AcDbCircle
 10
462.6037653536221
 20
1329.87847056837
 30
0.0
 40
222.5
100
AcDbArc
 50
149.9019558132281
 51
30.09804418667183
  0
ARC
  5
2FC
330
37
100
AcDbEntity
  8
Sichtbar (ISO)
100
AcDbCircle
 10
462.6037653536256
 20
1329.878470568366
 30
0.0
 40
222.5000000000048
100
AcDbArc
 50
128.9859870380851
 51
136.9146599920951
  0
CIRCLE
  5
2FD
330
37
100
AcDbEntity
  8
Sichtbar (ISO)
100
AcDbCircle
 10
321.1824091163125
 20
1471.299826805679
 30
0.0
 40
11.0
  0
ARC
  5
2FE
330
37
100
AcDbEntity
  8
Sichtbar (ISO)
100
AcDbCircle
 10
269.4186000958084
 20
1381.642279588874
 30
0.0
 40
11.0
100
AcDbArc
 50
86.42886303025468
 51
273.5711369697453
  0
CIRCLE
  5
2FF
330
37
100
AcDbEntity
  8
Sichtbar (ISO)
100
AcDbCircle
 10
269.4186000958086
 20
1278.114661547865
 30
0.0
 40
11.0
  0
CIRCLE
  5
300
330
37
100
AcDbEntity
  8
Sichtbar (ISO)
100
AcDbCircle
 10
321.1824091163129
 20
1188.45711433106
 30
0.0
 40
11.0
  0
CIRCLE
  5
301
330
37
100
AcDbEntity
  8
Sichtbar (ISO)
100
AcDbCircle
 10
410.8399563331181
 20
1136.693305310556
 30
0.0
 40
11.0
  0
CIRCLE
  5
302
330
37
100
AcDbEntity
  8
Sichtbar (ISO)
100
AcDbCircle
 10
514.3675743741265
 20
1136.693305310556
 30
0.0
 40
11.0
  0
CIRCLE
  5
303
330
37
100
AcDbEntity
  8
Sichtbar (ISO)
100
AcDbCircle
 10
604.0251215909318
 20
1188.45711433106
 30
0.0
 40
11.0
  0
CIRCLE
  5
304
330
37
100
AcDbEntity
  8
Sichtbar (ISO)
100
AcDbCircle
 10
655.7889306114358
 20
1278.114661547866
 30
0.0
 40
11.0
  0
ARC
  5
305
330
37
100
AcDbEntity
  8
Sichtbar (ISO)
100
AcDbCircle
 10
655.7889306114358
 20
1381.642279588874
 30
0.0
 40
11.00000000000001
100
AcDbArc
 50
266.4288630312733
 51
93.57113696872664
  0
CIRCLE
  5
306
330
37
100
AcDbEntity
  8
Sichtbar (ISO)
100
AcDbCircle
 10
604.0251215909314
 20
1471.299826805679
 30
0.0
 40
11.0
  0
CIRCLE
  5
307
330
37
100
AcDbEntity
  8
Sichtbar (ISO)
100
AcDbCircle
 10
462.6037653538086
 20
1329.87847056837
 30
0.0
 40
157.4
  0
ARC
  5
308
330
37
100
AcDbEntity
  8
Sichtbar (ISO)
100
AcDbCircle
 10
462.6037653538086
 20
1329.87847056837
 30
0.0
 40
177.4999999999999
100
AcDbArc
 50
108.507415743943
 51
71.49258425615819
  0
LINE
  5
309
330
37
100
AcDbEntity
  8
Sichtbar (ISO)
100
AcDbLine
 10
625.103765353726
 20
1414.947697862634
 30
0.0
 11
629.3992055431765
 21
1390.587046008949
 31
0.0
  0
LINE
  5
30A
330
37
100
AcDbEntity
  8
Sichtbar (ISO)
100
AcDbLine
 10
640.1037653537263
 20
1329.87847056837
 30
0.0
 11
655.1037653537263
 21
1329.87847056837
 31
0.0
  0
LINE
  5
30B
330
37
100
AcDbEntity
  8
Sichtbar (ISO)
100
AcDbLine
 10
655.1037653537263
 20
1329.87847056837
 30
0.0
 11
655.1037653537258
 21
1514.607292023739
 31
0.0
  0
LINE
  5
30C
330
37
100
AcDbEntity
  8
Sichtbar (ISO)
100
AcDbLine
 10
625.103765353726
 20
1414.947697862634
 30
0.0
 11
625.103765353726
 21
1505.407763311997
 31
0.0
  0
LINE
  5
30D
330
37
100
AcDbEntity
  8
Sichtbar (ISO)
100
AcDbLine
 10
625.1037653538106
 20
1577.254430377798
 30
0.0
 11
655.1037653538108
 21
1577.254430377798
 31
0.0
  0
LINE
  5
30E
330
37
100
AcDbEntity
  8
Sichtbar (ISO)
100
AcDbLine
 10
655.1037653538108
 20
1577.254430377798
 30
0.0
 11
655.1037653538127
 21
1616.647596602757
 31
0.0
  0
LINE
  5
30F
330
37
100
AcDbEntity
  8
Sichtbar (ISO)
100
AcDbLine
 10
625.1037653538126
 20
1616.647596602757
 30
0.0
 11
655.1037653538127
 21
1616.647596602757
 31
0.0
  0
LINE
  5
310
330
37
100
AcDbEntity
  8
Sichtbar (ISO)
100
AcDbLine
 10
625.1037653538106
 20
1577.254430377798
 30
0.0
 11
625.1037653538126
 21
1616.647596602757
 31
0.0
  0
LINE
  5
311
330
37
100
AcDbEntity
  8
Sichtbar (ISO)
100
AcDbLine
 10
655.1037653538127
 20
1616.647596602757
 30
0.0
 11
655.1037653537592
 21
1742.834412599985
 31
0.0
  0
LINE
  5
312
330
37
100
AcDbEntity
  8
Sichtbar (ISO)
100
AcDbLine
 10
625.1037653537593
 20
1742.834412599985
 30
0.0
 11
655.1037653537592
 21
1742.834412599985
 31
0.0
  0
LINE
  5
313
330
37
100
AcDbEntity
  8
Sichtbar (ISO)
100
AcDbLine
 10
625.1037653538126
 20
1616.647596602757
 30
0.0
 11
625.1037653537593
 21
1742.834412599985
 31
0.0
  0
LINE
  5
314
330
37
100
AcDbEntity
  8
Sichtbar (ISO)
100
AcDbLine
 10
295.8083251641639
 20
1390.587046008347
 30
0.0
 11
300.1037653537259
 21
1414.947697862663
 31
0.0
  0
LINE
  5
315
330
37
100
AcDbEntity
  8
Sichtbar (ISO)
100
AcDbLine
 10
300.1037653537259
 20
1414.947697862663
 30
0.0
 11
300.1037653537259
 21
1505.407763312098
 31
0.0
  0
LINE
  5
316
330
37
100
AcDbEntity
  8
Sichtbar (ISO)
100
AcDbLine
 10
270.1037653537134
 20
1329.87847056837
 30
0.0
 11
270.1037653537133
 21
1514.607292023796
 31
0.0
  0
LINE
  5
317
330
37
100
AcDbEntity
  8
Sichtbar (ISO)
100
AcDbLine
 10
270.1037653537134
 20
1329.87847056837
 30
0.0
 11
285.1037653537197
 21
1329.87847056837
 31
0.0
  0
LINE
  5
318
330
37
100
AcDbEntity
  8
Sichtbar (ISO)
100
AcDbLine
 10
300.1037653538127
 20
1616.64759660287
 30
0.0
 11
300.1037653537589
 21
1742.834412600128
 31
0.0
  0
LINE
  5
319
330
37
100
AcDbEntity
  8
Sichtbar (ISO)
100
AcDbLine
 10
300.1037653538105
 20
1577.254430377899
 30
0.0
 11
300.1037653538127
 21
1616.64759660287
 31
0.0
  0
LINE
  5
31A
330
37
100
AcDbEntity
  8
Sichtbar (ISO)
100
AcDbLine
 10
270.103765353798
 20
1577.254430377899
 30
0.0
 11
300.1037653538105
 21
1577.254430377899
 31
0.0
  0
LINE
  5
31B
330
37
100
AcDbEntity
  8
Sichtbar (ISO)
100
AcDbLine
 10
270.1037653538
 20
1616.64759660287
 30
0.0
 11
300.1037653538127
 21
1616.64759660287
 31
0.0
  0
LINE
  5
31C
330
37
100
AcDbEntity
  8
Sichtbar (ISO)
100
AcDbLine
 10
270.103765353798
 20
1577.254430377899
 30
0.0
 11
270.1037653538
 21
1616.64759660287
 31
0.0
  0
LINE
  5
31D
330
37
100
AcDbEntity
  8
Sichtbar (ISO)
100
AcDbLine
 10
270.1037653537464
 20
1742.834412600128
 30
0.0
 11
300.1037653537589
 21
1742.834412600128
 31
0.0
  0
LINE
  5
31E
330
37
100
AcDbEntity
  8
Sichtbar (ISO)
100
AcDbLine
 10
270.1037653538
 20
1616.64759660287
 30
0.0
 11
270.1037653537464
 21
1742.834412600128
 31
0.0
  0
ELLIPSE
  5
31F
330
37
100
AcDbEntity
  8
Sichtbar (ISO)
100
AcDbEllipse
 10
462.6037653537966
 20
1625.323934285352
 30
0.0
 11
10.9999999999999
 21
-0.0000000000005676
 31
0.0
210
0.0
220
0.0
230
1.0
 40
0.1735267536519307
 41
2.838927379635713
 42
6.585850581134415
  0
LINE
  5
320
330
37
100
AcDbEntity
  8
Sichtbar (ISO)
100
AcDbLine
 10
625.1037653538077
 20
1577.254430377798
 30
0.0
 11
625.1037653538096
 21
1616.647596602755
 31
0.0
  0
LINE
  5
321
330
37
100
AcDbEntity
  8
Sichtbar (ISO)
100
AcDbLine
 10
625.1037653538096
 20
1616.647596602755
 30
0.0
 11
300.1037653538127
 21
1616.647596602755
 31
0.0
  0
LINE
  5
322
330
37
100
AcDbEntity
  8
Sichtbar (ISO)
100
AcDbLine
 10
300.1037653538106
 20
1577.254430377798
 30
0.0
 11
300.1037653538127
 21
1616.647596602755
 31
0.0
  0
LINE
  5
323
330
37
100
AcDbEntity
  8
Sichtbar (ISO)
100
AcDbLine
 10
625.1037653538077
 20
1577.254430377798
 30
0.0
 11
300.1037653538106
 21
1577.254430377798
 31
0.0
  0
LINE
  5
324
330
37
100
AcDbEntity
  8
Sichtbar (ISO)
100
AcDbLine
 10
300.1037653537541
 20
1651.352947333141
 30
0.0
 11
625.1037653537512
 21
1651.352947333141
 31
0.0
  0
ELLIPSE
  5
325
330
37
100
AcDbEntity
  8
Sichtbar (ISO)
100
AcDbEllipse
 10
462.6037653537974
 20
1640.096371619713
 30
0.0
 11
-10.5
 21
-0.0000000000000068
 31
0.0
210
0.0
220
0.0
230
1.0
 40
0.1735267536519363
 41
0.0
 42
6.283185307169882
  0
LINE
  5
326
330
37
100
AcDbEntity
  8
Sichtbar (ISO)
100
AcDbLine
 10
452.1037653537964
 20
1624.754988775656
 30
0.0
 11
452.1037653537972
 21
1640.096371619713
 31
0.0
  0
LINE
  5
327
330
37
100
AcDbEntity
  8
Sichtbar (ISO)
100
AcDbLine
 10
473.1037653537964
 20
1624.754988775654
 30
0.0
 11
473.1037653537973
 21
1640.096371619712
 31
0.0
  0
ELLIPSE
  5
328
330
37
100
AcDbEntity
  8
Sichtbar (ISO)
100
AcDbEllipse
 10
651.6037653538492
 20
1542.301090908315
 30
0.0
 11
-8.426052966607766
 21
8.426052966593562
 31
0.0
210
0.0
220
0.0
230
0.9999999999999998
 40
0.8392046901012685
 41
2.443399304873123
 42
5.410582329099684
  0
ELLIPSE
  5
329
330
37
100
AcDbEntity
  8
Sichtbar (ISO)
100
AcDbEllipse
 10
651.6037653537388
 20
1607.894203788747
 30
0.0
 11
8.426052966592235
 21
8.426052966604901
 31
0.0
210
0.0
220
0.0
230
1.0
 40
0.8392046901011815
 41
5.584991958464707
 42
6.83197726997732
  0
ELLIPSE
  5
32A
330
37
100
AcDbEntity
  8
Sichtbar (ISO)
100
AcDbEllipse
 10
273.6037653538493
 20
1542.301090908315
 30
0.0
 11
8.426052966591337
 21
8.426052966605736
 31
0.0
210
0.0
220
0.0
230
0.9999999999999998
 40
0.8392046901011834
 41
0.8726029780781811
 42
3.839786002304759
  0
ELLIPSE
  5
32B
330
37
100
AcDbEntity
  8
Sichtbar (ISO)
100
AcDbEllipse
 10
273.6037653537388
 20
1607.894203788747
 30
0.0
 11
-8.426052966608494
 21
8.42605296659283
 31
0.0
210
0.0
220
0.0
230
1.0
 40
0.8392046901012687
 41
5.73439334436728
 42
6.981378655896168
  0
LINE
  5
32C
330
37
100
AcDbEntity
  8
Sichtbar (ISO)
100
AcDbLine
 10
662.6037653537355
 20
1609.802998078937
 30
0.0
 11
662.6037653538523
 21
1540.392296618162
 31
0.0
  0
LINE
  5
32D
330
37
100
AcDbEntity
  8
Sichtbar (ISO)
100
AcDbLine
 10
653.5125596440206
 20
1531.301090908315
 30
0.0
 11
651.7076373722447
 21
1531.301090908315
 31
0.0
  0
LINE
  5
32E
330
37
100
AcDbEntity
  8
Sichtbar (ISO)
100
AcDbLine
 10
273.4998933354583
 20
1531.301090908315
 30
0.0
 11
271.6949710636781
 21
1531.301090908315
 31
0.0
  0
LINE
  5
32F
330
37
100
AcDbEntity
  8
Sichtbar (ISO)
100
AcDbLine
 10
262.6037653538525
 20
1540.392296618125
 30
0.0
 11
262.6037653537356
 21
1609.802998078899
 31
0.0
  0
ELLIPSE
  5
330
330
37
100
AcDbEntity
  8
Sichtbar (ISO)
100
AcDbEllipse
 10
462.6037653538315
 20
1514.607292023742
 30
0.0
 11
-192.4999999999996
 21
-0.0000000000001227
 31
0.0
210
0.0
220
0.0
230
1.0
 40
0.0891437244941511
 41
-0.0000000000673177
 42
3.141592653522475
  0
LINE
  5
331
330
37
100
AcDbEntity
  8
Sichtbar (ISO)
100
AcDbLine
 10
655.1037653538312
 20
1531.42362698632
 30
0.0
 11
655.103765353831
 21
1514.607292023742
 31
0.0
  0
LINE
  5
332
330
37
100
AcDbEntity
  8
Sichtbar (ISO)
100
AcDbLine
 10
270.1037653538322
 20
1531.423626986325
 30
0.0
 11
270.1037653538319
 21
1514.607292023742
 31
0.0
  0
ELLIPSE
  5
333
330
37
100
AcDbEntity
  8
Sichtbar (ISO)
100
AcDbEllipse
 10
462.6037653538316
 20
1534.583239084203
 30
0.0
 11
192.4999999999996
 21
0.0000000000001227
 31
0.0
210
0.0
220
0.0
230
1.0
 40
0.0891437244941511
 41
3.332143618066656
 42
6.092634342573165
  0
CIRCLE
  5
334
330
37
100
AcDbEntity
  8
Sichtbar (ISO)
100
AcDbCircle
 10
462.6037653536132
 20
1329.87847056837
 30
0.0
 40
154.5
  0
LINE
  5
335
330
37
100
AcDbEntity
  8
Sichtbar (ISO)
100
AcDbLine
 10
572.6037653535625
 20
1099.87847056837
 30
0.0
 11
692.6037653535622
 21
1219.87847056837
 31
0.0
  0
LINE
  5
336
330
37
100
AcDbEntity
  8
Sichtbar (ISO)
100
AcDbLine
 10
692.6037653535622
 20
1439.87847056837
 30
0.0
 11
655.1037653537257
 21
1477.378470568206
 31
0.0
  0
LINE
  5
337
330
37
100
AcDbEntity
  8
Sichtbar (ISO)
100
AcDbLine
 10
692.6037653535622
 20
1439.87847056837
 30
0.0
 11
692.6037653535622
 21
1219.87847056837
 31
0.0
  0
LINE
  5
338
330
37
100
AcDbEntity
  8
Sichtbar (ISO)
100
AcDbLine
 10
232.6037653535625
 20
1219.87847056837
 30
0.0
 11
232.6037653535625
 21
1439.87847056837
 31
0.0
  0
LINE
  5
339
330
37
100
AcDbEntity
  8
Sichtbar (ISO)
100
AcDbLine
 10
572.6037653535625
 20
1099.87847056837
 30
0.0
 11
352.6037653535624
 21
1099.87847056837
 31
0.0
  0
LINE
  5
33A
330
37
100
AcDbEntity
  8
Sichtbar (ISO)
100
AcDbLine
 10
270.1037653537132
 20
1477.378470568521
 30
0.0
 11
232.6037653535625
 21
1439.87847056837
 31
0.0
  0
LINE
  5
33B
330
37
100
AcDbEntity
  8
Sichtbar (ISO)
100
AcDbLine
 10
232.6037653535625
 20
1219.87847056837
 30
0.0
 11
352.6037653535624
 21
1099.87847056837
 31
0.0
  0
LINE
  5
33C
330
37
100
AcDbEntity
  8
Sichtbar (ISO)
100
AcDbLine
 10
408.6037653535389
 20
1661.515737871843
 30
0.0
 11
516.6037653535389
 21
1661.515737871843
 31
0.0
  0
LINE
  5
33D
330
37
100
AcDbEntity
  8
Sichtbar (ISO)
100
AcDbLine
 10
408.6037653535389
 20
1651.352947333143
 30
0.0
 11
408.6037653535389
 21
1661.515737871843
 31
0.0
  0
LINE
  5
33E
330
37
100
AcDbEntity
  8
Sichtbar (ISO)
100
AcDbLine
 10
516.6037653535389
 20
1651.352947333143
 30
0.0
 11
516.6037653535389
 21
1661.515737871843
 31
0.0
  0
LINE
  5
33F
330
37
100
AcDbEntity
  8
Sichtbar (ISO)
100
AcDbLine
 10
240.1037653532614
 20
1447.378470568069
 30
0.0
 11
240.1037653532613
 21
1470.413163793922
 31
0.0
  0
LINE
  5
340
330
37
100
AcDbEntity
  8
Sichtbar (ISO)
100
AcDbLine
 10
685.1037653532612
 20
1470.413163793922
 30
0.0
 11
685.1037653532612
 21
1447.378470568671
 31
0.0
  0
LINE
  5
341
330
37
100
AcDbEntity
  8
Sichtbar (ISO)
100
AcDbLine
 10
240.1037653533175
 20
1667.866955856774
 30
0.0
 11
240.1037653532839
 21
1470.413163793921
 31
0.0
  0
LINE
  5
342
330
37
100
AcDbEntity
  8
Sichtbar (ISO)
100
AcDbLine
 10
270.1037653537782
 20
1667.866955856774
 30
0.0
 11
240.1037653533175
 21
1667.866955856773
 31
0.0
  0
LINE
  5
343
330
37
100
AcDbEntity
  8
Sichtbar (ISO)
100
AcDbLine
 10
240.1037653532839
 20
1470.413163793921
 30
0.0
 11
263.1384585791141
 21
1470.413163793921
 31
0.0
  0
LINE
  5
344
330
37
100
AcDbEntity
  8
Sichtbar (ISO)
100
AcDbLine
 10
240.1037653533175
 20
1667.866955856774
 30
0.0
 11
240.1037653533174
 21
1774.87847056837
 31
0.0
  0
LINE
  5
345
330
37
100
AcDbEntity
  8
Sichtbar (ISO)
100
AcDbLine
 10
685.1037653533174
 20
1774.87847056837
 30
0.0
 11
685.1037653533174
 21
1667.866955856774
 31
0.0
  0
LINE
  5
346
330
37
100
AcDbEntity
  8
Sichtbar (ISO)
100
AcDbLine
 10
640.1037653533172
 20
1774.87847056837
 30
0.0
 11
685.1037653533174
 21
1774.87847056837
 31
0.0
  0
LINE
  5
347
330
37
100
AcDbEntity
  8
Sichtbar (ISO)
100
AcDbLine
 10
240.1037653533174
 20
1774.87847056837
 30
0.0
 11
285.1037653533174
 21
1774.87847056837
 31
0.0
  0
LINE
  5
348
330
37
100
AcDbEntity
  8
Sichtbar (ISO)
100
AcDbLine
 10
635.1037653533157
 20
1769.87847056837
 30
0.0
 11
640.1037653533172
 21
1774.87847056837
 31
0.0
  0
LINE
  5
349
330
37
100
AcDbEntity
  8
Sichtbar (ISO)
100
AcDbLine
 10
640.1037653533172
 20
1742.834412599989
 30
0.0
 11
640.1037653533172
 21
1774.87847056837
 31
0.0
  0
LINE
  5
34A
330
37
100
AcDbEntity
  8
Sichtbar (ISO)
100
AcDbLine
 10
635.1037653533157
 20
1769.87847056837
 30
0.0
 11
635.1037653533157
 21
1742.83441259999
 31
0.0
  0
LINE
  5
34B
330
37
100
AcDbEntity
  8
Sichtbar (ISO)
100
AcDbLine
 10
285.1037653533174
 20
1774.87847056837
 30
0.0
 11
290.103765353316
 21
1769.878470568369
 31
0.0
  0
LINE
  5
34C
330
37
100
AcDbEntity
  8
Sichtbar (ISO)
100
AcDbLine
 10
290.103765353316
 20
1742.8344126
 30
0.0
 11
290.103765353316
 21
1769.878470568369
 31
0.0
  0
LINE
  5
34D
330
37
100
AcDbEntity
  8
Sichtbar (ISO)
100
AcDbLine
 10
285.1037653533174
 20
1774.87847056837
 30
0.0
 11
285.1037653533174
 21
1742.8344126
 31
0.0
  0
LINE
  5
34E
330
37
100
AcDbEntity
  8
Sichtbar (ISO)
100
AcDbLine
 10
685.103765353284
 20
1470.413163793922
 30
0.0
 11
685.1037653533174
 21
1667.866955856774
 31
0.0
  0
LINE
  5
34F
330
37
100
AcDbEntity
  8
Sichtbar (ISO)
100
AcDbLine
 10
685.1037653533174
 20
1667.866955856774
 30
0.0
 11
655.103765353791
 21
1667.866955856774
 31
0.0
  0
LINE
  5
350
330
37
100
AcDbEntity
  8
Sichtbar (ISO)
100
AcDbLine
 10
662.0690721280104
 20
1470.413163793922
 30
0.0
 11
685.103765353284
 21
1470.413163793922
 31
0.0
  0
LINE
  5
351
330
37
100
AcDbEntity
  8
Sichtbar (ISO)
100
AcDbLine
 10
625.103765353788
 20
1674.87847056837
 30
0.0
 11
470.1037653533377
 21
1674.87847056837
 31
0.0
  0
LINE
  5
352
330
37
100
AcDbEntity
  8
Sichtbar (ISO)
100
AcDbLine
 10
455.1037653533376
 20
1674.87847056837
 30
0.0
 11
300.1037653537753
 21
1674.87847056837
 31
0.0
  0
LINE
  5
353
330
37
100
AcDbEntity
  8
Sichtbar (ISO)
100
AcDbLine
 10
640.1037653533121
 20
1774.87847056837
 30
0.0
 11
285.1037653533124
 21
1774.87847056837
 31
0.0
  0
LINE
  5
354
330
37
100
AcDbEntity
  8
Sichtbar (ISO)
100
AcDbLine
 10
455.1037653532952
 20
1724.878470568369
 30
0.0
 11
455.1037653533488
 21
1661.515737871843
 31
0.0
  0
LINE
  5
355
330
37
100
AcDbEntity
  8
Sichtbar (ISO)
100
AcDbLine
 10
470.1037653533488
 20
1661.515737871844
 30
0.0
 11
470.1037653532952
 21
1724.878470568369
 31
0.0
  0
LINE
  5
356
330
37
100
AcDbEntity
  8
Sichtbar (ISO)
100
AcDbLine
 10
455.1037653532952
 20
1724.878470568369
 30
0.0
 11
470.1037653532952
 21
1724.878470568369
 31
0.0
  0
LINE
  5
357
330
37
100
AcDbEntity
  8
Sichtbar (ISO)
100
AcDbLine
 10
3409.034338682526
 20
1219.87847056837
 30
0.0
 11
3529.034338682526
 21
1099.87847056837
 31
0.0
  0
LINE
  5
358
330
37
100
AcDbEntity
  8
Sichtbar (ISO)
100
AcDbLine
 10
3416.534338682249
 20
1447.378470568095
 30
0.0
 11
3409.034338682526
 21
1439.87847056837
 31
0.0
  0
LINE
  5
359
330
37
100
AcDbEntity
  8
Sichtbar (ISO)
100
AcDbLine
 10
3409.034338682526
 20
1219.87847056837
 30
0.0
 11
3409.034338682526
 21
1439.87847056837
 31
0.0
  0
LINE
  5
35A
330
37
100
AcDbEntity
  8
Sichtbar (ISO)
100
AcDbLine
 10
3749.034338682526
 20
1099.87847056837
 30
0.0
 11
3529.034338682526
 21
1099.87847056837
 31
0.0
  0
LINE
  5
35B
330
37
100
AcDbEntity
  8
Sichtbar (ISO)
100
AcDbLine
 10
3869.034338682524
 20
1439.87847056837
 30
0.0
 11
3869.034338682524
 21
1219.87847056837
 31
0.0
  0
LINE
  5
35C
330
37
100
AcDbEntity
  8
Sichtbar (ISO)
100
AcDbLine
 10
3749.034338682526
 20
1099.87847056837
 30
0.0
 11
3869.034338682526
 21
1219.87847056837
 31
0.0
  0
LINE
  5
35D
330
37
100
AcDbEntity
  8
Sichtbar (ISO)
100
AcDbLine
 10
3869.034338682524
 20
1439.87847056837
 30
0.0
 11
3861.53433868225
 21
1447.378470568645
 31
0.0
  0
LINE
  5
35E
330
37
100
AcDbEntity
  8
Sichtbar (ISO)
100
AcDbLine
 10
3861.53433868225
 20
1552.37847056837
 30
0.0
 11
3416.534338682249
 21
1552.37847056837
 31
0.0
  0
LINE
  5
35F
330
37
100
AcDbEntity
  8
Sichtbar (ISO)
100
AcDbLine
 10
3416.534338682259
 20
1774.87847056837
 30
0.0
 11
3861.534338682258
 21
1774.87847056837
 31
0.0
  0
LINE
  5
360
330
37
100
AcDbEntity
  8
Sichtbar (ISO)
100
AcDbLine
 10
3416.534338682259
 20
1552.37847056837
 30
0.0
 11
3416.534338682259
 21
1774.87847056837
 31
0.0
  0
LINE
  5
361
330
37
100
AcDbEntity
  8
Sichtbar (ISO)
100
AcDbLine
 10
3861.534338682258
 20
1774.87847056837
 30
0.0
 11
3861.534338682258
 21
1552.37847056837
 31
0.0
  0
LINE
  5
362
330
37
100
AcDbEntity
  8
Sichtbar (ISO)
100
AcDbLine
 10
3861.53433868225
 20
1329.87847056837
 30
0.0
 11
3861.53433868225
 21
1552.37847056837
 31
0.0
  0
LINE
  5
363
330
37
100
AcDbEntity
  8
Sichtbar (ISO)
100
AcDbLine
 10
3416.534338682249
 20
1552.37847056837
 30
0.0
 11
3416.534338682249
 21
1329.87847056837
 31
0.0
  0
ARC
  5
364
330
37
100
AcDbEntity
  8
Sichtbar (ISO)
100
AcDbCircle
 10
3639.034338682249
 20
1329.87847056837
 30
0.0
 40
222.5
100
AcDbArc
 50
180.0
 51
0.0
  0
CIRCLE
  5
365
330
37
100
AcDbEntity
  8
Sichtbar (ISO)
100
AcDbCircle
 10
3497.61298244494
 20
1471.29982680568
 30
0.0
 40
11.0
  0
CIRCLE
  5
366
330
37
100
AcDbEntity
  8
Sichtbar (ISO)
100
AcDbCircle
 10
3587.270529661747
 20
1523.063635826184
 30
0.0
 40
11.0
  0
CIRCLE
  5
367
330
37
100
AcDbEntity
  8
Sichtbar (ISO)
100
AcDbCircle
 10
3690.798147702754
 20
1523.063635826184
 30
0.0
 40
11.0
  0
CIRCLE
  5
368
330
37
100
AcDbEntity
  8
Sichtbar (ISO)
100
AcDbCircle
 10
3780.45569491956
 20
1471.299826805679
 30
0.0
 40
11.0
  0
CIRCLE
  5
369
330
37
100
AcDbEntity
  8
Sichtbar (ISO)
100
AcDbCircle
 10
3832.219503940063
 20
1381.642279588874
 30
0.0
 40
11.0
  0
CIRCLE
  5
36A
330
37
100
AcDbEntity
  8
Sichtbar (ISO)
100
AcDbCircle
 10
3832.219503940063
 20
1278.114661547866
 30
0.0
 40
11.0
  0
CIRCLE
  5
36B
330
37
100
AcDbEntity
  8
Sichtbar (ISO)
100
AcDbCircle
 10
3780.455694919558
 20
1188.45711433106
 30
0.0
 40
11.0
  0
CIRCLE
  5
36C
330
37
100
AcDbEntity
  8
Sichtbar (ISO)
100
AcDbCircle
 10
3690.798147702754
 20
1136.693305310556
 30
0.0
 40
11.0
  0
CIRCLE
  5
36D
330
37
100
AcDbEntity
  8
Sichtbar (ISO)
100
AcDbCircle
 10
3587.270529661747
 20
1136.693305310556
 30
0.0
 40
11.0
  0
CIRCLE
  5
36E
330
37
100
AcDbEntity
  8
Sichtbar (ISO)
100
AcDbCircle
 10
3497.61298244494
 20
1188.45711433106
 30
0.0
 40
11.0
  0
CIRCLE
  5
36F
330
37
100
AcDbEntity
  8
Sichtbar (ISO)
100
AcDbCircle
 10
3445.849173424436
 20
1278.114661547866
 30
0.0
 40
11.0
  0
CIRCLE
  5
370
330
37
100
AcDbEntity
  8
Sichtbar (ISO)
100
AcDbCircle
 10
3445.849173424436
 20
1381.642279588874
 30
0.0
 40
11.0
  0
CIRCLE
  5
371
330
37
100
AcDbEntity
  8
Sichtbar (ISO)
100
AcDbCircle
 10
3639.034338682249
 20
1329.87847056837
 30
0.0
 40
154.5
  0
ARC
  5
372
330
37
100
AcDbEntity
  8
Sichtbar (ISO)
100
AcDbCircle
 10
3639.034338682256
 20
1329.878470568375
 30
0.0
 40
205.000000000019
100
AcDbArc
 50
342.2272628590128
 51
347.7727371409833
  0
ARC
  5
373
330
37
100
AcDbEntity
  8
Sichtbar (ISO)
100
AcDbCircle
 10
3639.034338682264
 20
1329.878470568379
 30
0.0
 40
205.0000000000141
100
AcDbArc
 50
312.2272628590088
 51
317.772737140981
  0
ARC
  5
374
330
37
100
AcDbEntity
  8
Sichtbar (ISO)
100
AcDbCircle
 10
3639.034338682281
 20
1329.878470568344
 30
0.0
 40
204.9999999999737
100
AcDbArc
 50
282.227262859005
 51
287.7727371409814
  0
ARC
  5
375
330
37
100
AcDbEntity
  8
Sichtbar (ISO)
100
AcDbCircle
 10
3639.034338682278
 20
1329.878470568382
 30
0.0
 40
205.0000000000125
100
AcDbArc
 50
252.2272628590035
 51
257.7727371409825
  0
ARC
  5
376
330
37
100
AcDbEntity
  8
Sichtbar (ISO)
100
AcDbCircle
 10
3639.034338682278
 20
1329.878470568374
 30
0.0
 40
205.0000000000057
100
AcDbArc
 50
222.2272628590038
 51
227.7727371409861
  0
ARC
  5
377
330
37
100
AcDbEntity
  8
Sichtbar (ISO)
100
AcDbCircle
 10
3639.034338682281
 20
1329.878470568371
 30
0.0
 40
205.0000000000064
100
AcDbArc
 50
192.2272628590059
 51
197.77273714099
  0
LINE
  5
378
330
37
100
AcDbEntity
  8
Sichtbar (ISO)
100
AcDbLine
 10
2185.959846806948
 20
424.7414433381035
 30
0.0
 11
2185.959846806948
 21
430.6544345685033
 31
0.0
  0
LINE
  5
379
330
37
100
AcDbEntity
  8
Sichtbar (ISO)
100
AcDbLine
 10
2155.959846806948
 20
430.6544345685033
 30
0.0
 11
2155.959846806948
 21
424.7414433381035
 31
0.0
  0
LINE
  5
37A
330
37
100
AcDbEntity
  8
Sichtbar (ISO)
100
AcDbLine
 10
2155.959846806948
 20
634.1527170650226
 30
0.0
 11
2155.959846806948
 21
628.2397258346255
 31
0.0
  0
LINE
  5
37B
330
37
100
AcDbEntity
  8
Sichtbar (ISO)
100
AcDbLine
 10
2185.959846806948
 20
628.2397258346255
 30
0.0
 11
2185.959846806948
 21
634.1527170650226
 31
0.0
  0
LINE
  5
37C
330
37
100
AcDbEntity
  8
Sichtbar (ISO)
100
AcDbLine
 10
2185.959846806948
 20
430.6544345685033
 30
0.0
 11
2185.959846806948
 21
504.6983428600571
 31
0.0
  0
LINE
  5
37D
330
37
100
AcDbEntity
  8
Sichtbar (ISO)
100
AcDbLine
 10
2155.959846806948
 20
430.6544345685033
 30
0.0
 11
2155.959846806948
 21
504.6983428600571
 31
0.0
  0
LINE
  5
37E
330
37
100
AcDbEntity
  8
Sichtbar (ISO)
100
AcDbLine
 10
2155.959846806948
 20
554.1958175431155
 30
0.0
 11
2155.959846806948
 21
628.2397258346255
 31
0.0
  0
LINE
  5
37F
330
37
100
AcDbEntity
  8
Sichtbar (ISO)
100
AcDbLine
 10
2185.959846806948
 20
554.1958175431155
 30
0.0
 11
2185.959846806948
 21
628.2397258346255
 31
0.0
  0
LINE
  5
380
330
37
100
AcDbEntity
  8
Sichtbar (ISO)
100
AcDbLine
 10
2185.959846806948
 20
554.1958175431155
 30
0.0
 11
2185.959846806948
 21
504.6983428600571
 31
0.0
  0
LINE
  5
381
330
37
100
AcDbEntity
  8
Sichtbar (ISO)
100
AcDbLine
 10
2155.959846806948
 20
554.1958175431155
 30
0.0
 11
2155.959846806948
 21
504.6983428600571
 31
0.0
  0
LINE
  5
382
330
37
100
AcDbEntity
  8
Sichtbar (ISO)
100
AcDbLine
 10
2155.959846806948
 20
306.9470802015048
 30
0.0
 11
2155.959846806948
 21
424.7414433381035
 31
0.0
  0
LINE
  5
383
330
37
100
AcDbEntity
  8
Sichtbar (ISO)
100
AcDbLine
 10
2155.959846806948
 20
634.1527170650228
 30
0.0
 11
2155.959846806948
 21
751.947080201505
 31
0.0
  0
LINE
  5
384
330
37
100
AcDbEntity
  8
Sichtbar (ISO)
100
AcDbLine
 10
2185.959846806948
 20
751.9470802015048
 30
0.0
 11
2185.959846806948
 21
634.1527170650226
 31
0.0
  0
LINE
  5
385
330
37
100
AcDbEntity
  8
Sichtbar (ISO)
100
AcDbLine
 10
2185.959846806948
 20
424.7414433381036
 30
0.0
 11
2185.959846806948
 21
306.9470802015048
 31
0.0
  0
LINE
  5
386
330
37
100
AcDbEntity
  8
Sichtbar (ISO)
100
AcDbLine
 10
2155.959846806948
 20
751.9470802015048
 30
0.0
 11
2185.959846806948
 21
751.9470802015048
 31
0.0
  0
LINE
  5
387
330
37
100
AcDbEntity
  8
Sichtbar (ISO)
100
AcDbLine
 10
2155.959846806948
 20
306.9470802015048
 30
0.0
 11
2185.959846806948
 21
306.9470802015048
 31
0.0
  0
LINE
  5
388
330
37
100
AcDbEntity
  8
Sichtbar (ISO)
100
AcDbLine
 10
2828.305330906482
 20
691.9470802015898
 30
0.0
 11
2828.305330906482
 21
721.9470802015898
 31
0.0
  0
LINE
  5
389
330
37
100
AcDbEntity
  8
Sichtbar (ISO)
100
AcDbLine
 10
2828.305330906482
 20
721.9470802015898
 30
0.0
 11
2648.091881162907
 21
721.9470802016271
 31
0.0
  0
LINE
  5
38A
330
37
100
AcDbEntity
  8
Sichtbar (ISO)
100
AcDbLine
 10
2648.091881162907
 20
691.9470802016271
 30
0.0
 11
2648.091881162907
 21
721.9470802016271
 31
0.0
  0
LINE
  5
38B
330
37
100
AcDbEntity
  8
Sichtbar (ISO)
100
AcDbLine
 10
2828.305330906482
 20
691.9470802015898
 30
0.0
 11
2648.091881162907
 21
691.9470802016271
 31
0.0
  0
LINE
  5
38C
330
37
100
AcDbEntity
  8
Sichtbar (ISO)
100
AcDbLine
 10
2648.091881162907
 20
721.9470802016271
 30
0.0
 11
2348.09188116291
 21
721.9470802016271
 31
0.0
  0
LINE
  5
38D
330
37
100
AcDbEntity
  8
Sichtbar (ISO)
100
AcDbLine
 10
2348.09188116291
 20
691.9470802016271
 30
0.0
 11
2348.09188116291
 21
721.9470802016271
 31
0.0
  0
LINE
  5
38E
330
37
100
AcDbEntity
  8
Sichtbar (ISO)
100
AcDbLine
 10
2648.091881162907
 20
691.9470802016271
 30
0.0
 11
2348.09188116291
 21
691.9470802016271
 31
0.0
  0
LINE
  5
38F
330
37
100
AcDbEntity
  8
Sichtbar (ISO)
100
AcDbLine
 10
2348.09188116291
 20
721.9470802016271
 30
0.0
 11
2185.959846806948
 21
721.9470802015373
 31
0.0
  0
LINE
  5
390
330
37
100
AcDbEntity
  8
Sichtbar (ISO)
100
AcDbLine
 10
2348.09188116291
 20
691.9470802016271
 30
0.0
 11
2185.959846806948
 21
691.9470802015373
 31
0.0
  0
LINE
  5
391
330
37
100
AcDbEntity
  8
Sichtbar (ISO)
100
AcDbLine
 10
2348.091881162911
 20
366.9470802016272
 30
0.0
 11
2185.959846806948
 21
366.9470802015375
 31
0.0
  0
LINE
  5
392
330
37
100
AcDbEntity
  8
Sichtbar (ISO)
100
AcDbLine
 10
2648.091881162909
 20
366.9470802016271
 30
0.0
 11
2348.091881162911
 21
366.9470802016272
 31
0.0
  0
LINE
  5
393
330
37
100
AcDbEntity
  8
Sichtbar (ISO)
100
AcDbLine
 10
2828.305330906485
 20
366.9470802015896
 30
0.0
 11
2648.091881162909
 21
366.9470802016271
 31
0.0
  0
LINE
  5
394
330
37
100
AcDbEntity
  8
Sichtbar (ISO)
100
AcDbLine
 10
2828.305330906485
 20
336.9470802015771
 30
0.0
 11
2828.305330906485
 21
366.9470802015896
 31
0.0
  0
LINE
  5
395
330
37
100
AcDbEntity
  8
Sichtbar (ISO)
100
AcDbLine
 10
2648.091881162909
 20
336.9470802016145
 30
0.0
 11
2648.091881162909
 21
366.9470802016271
 31
0.0
  0
LINE
  5
396
330
37
100
AcDbEntity
  8
Sichtbar (ISO)
100
AcDbLine
 10
2828.305330906485
 20
336.9470802015771
 30
0.0
 11
2648.091881162909
 21
336.9470802016146
 31
0.0
  0
LINE
  5
397
330
37
100
AcDbEntity
  8
Sichtbar (ISO)
100
AcDbLine
 10
2348.091881162911
 20
336.9470802016146
 30
0.0
 11
2348.091881162911
 21
366.9470802016272
 31
0.0
  0
LINE
  5
398
330
37
100
AcDbEntity
  8
Sichtbar (ISO)
100
AcDbLine
 10
2648.091881162909
 20
336.9470802016145
 30
0.0
 11
2348.091881162911
 21
336.9470802016146
 31
0.0
  0
LINE
  5
399
330
37
100
AcDbEntity
  8
Sichtbar (ISO)
100
AcDbLine
 10
2348.091881162911
 20
336.9470802016146
 30
0.0
 11
2185.959846806948
 21
336.9470802015249
 31
0.0
  0
ELLIPSE
  5
39A
330
37
100
AcDbEntity
  8
Sichtbar (ISO)
100
AcDbEllipse
 10
2779.063873125288
 20
529.447080201591
 30
0.0
 11
0.0000000000184897
 21
-10.9999999999999
 31
0.0
210
0.0
220
0.0
230
1.0
 40
0.9848291556239388
 41
2.831637572227744
 42
6.593140388540811
  0
LINE
  5
39B
330
37
100
AcDbEntity
  8
Sichtbar (ISO)
100
AcDbLine
 10
2828.305330906484
 20
691.9470802015869
 30
0.0
 11
2828.305330906484
 21
366.9470802015896
 31
0.0
  0
LINE
  5
39C
330
37
100
AcDbEntity
  8
Sichtbar (ISO)
100
AcDbLine
 10
2631.339499781698
 20
366.9470802016001
 30
0.0
 11
2631.339499781698
 21
691.9470802015972
 31
0.0
  0
LINE
  5
39D
330
37
100
AcDbEntity
  8
Sichtbar (ISO)
100
AcDbLine
 10
2624.398429635621
 20
366.9470802015883
 30
0.0
 11
2624.398429635621
 21
691.9470802015855
 31
0.0
  0
ELLIPSE
  5
39E
330
37
100
AcDbEntity
  8
Sichtbar (ISO)
100
AcDbEllipse
 10
2781.666774430068
 20
529.4470802015953
 30
0.0
 11
-0.0000000000000041
 21
-10.5
 31
0.0
210
0.0
220
0.0
230
1.0
 40
0.9848291556239692
 41
0.0000000000000534
 42
6.283185307179585
  0
LINE
  5
39F
330
37
100
AcDbEntity
  8
Sichtbar (ISO)
100
AcDbLine
 10
2775.834894802799
 20
539.9470802015854
 30
0.0
 11
2781.66677443005
 21
539.9470802015953
 31
0.0
  0
LINE
  5
3A0
330
37
100
AcDbEntity
  8
Sichtbar (ISO)
100
AcDbLine
 10
2775.834894802842
 20
518.9470802015854
 30
0.0
 11
2781.666774430084
 21
518.9470802015953
 31
0.0
  0
ELLIPSE
  5
3A1
330
37
100
AcDbEntity
  8
Sichtbar (ISO)
100
AcDbEllipse
 10
2956.346719101969
 20
718.4470802015663
 30
0.0
 11
-10.9582007608573
 21
-10.95820076085672
 31
0.0
210
0.0
220
0.0
230
0.9999999999999998
 40
0.0874265440730556
 41
1.658001141476689
 42
3.228797468271288
  0
ELLIPSE
  5
3A2
330
37
100
AcDbEntity
  8
Sichtbar (ISO)
100
AcDbEllipse
 10
2584.081298276109
 20
718.4470802015856
 30
0.0
 11
10.958200760857
 21
-10.95820076085759
 31
0.0
210
0.0
220
0.0
230
1.0
 40
0.0874265440733492
 41
1.807402527390576
 42
3.22879746827159
  0
ELLIPSE
  5
3A3
330
37
100
AcDbEntity
  8
Sichtbar (ISO)
100
AcDbEllipse
 10
2956.346719101969
 20
340.4470802015664
 30
0.0
 11
-10.95820076085701
 21
10.95820076085754
 31
0.0
210
0.0
220
0.0
230
1.0
 40
0.0874265440733478
 41
3.054387838907934
 42
4.625184165703164
  0
ELLIPSE
  5
3A4
330
37
100
AcDbEntity
  8
Sichtbar (ISO)
100
AcDbEllipse
 10
2584.081298276109
 20
340.4470802015859
 30
0.0
 11
10.95820076085729
 21
10.95820076085671
 31
0.0
210
0.0
220
0.0
230
1.0
 40
0.0874265440730555
 41
3.054387838908279
 42
4.475782779795457
  0
LINE
  5
3A5
330
37
100
AcDbEntity
  8
Sichtbar (ISO)
100
AcDbLine
 10
2573.248177564246
 20
729.4470802015863
 30
0.0
 11
2967.179839813835
 21
729.4470802015657
 31
0.0
  0
LINE
  5
3A6
330
37
100
AcDbEntity
  8
Sichtbar (ISO)
100
AcDbLine
 10
2967.346719101969
 20
729.28020091343
 30
0.0
 11
2967.346719101969
 21
329.6139594897028
 31
0.0
  0
LINE
  5
3A7
330
37
100
AcDbEntity
  8
Sichtbar (ISO)
100
AcDbLine
 10
2967.179839813832
 20
329.4470802015658
 30
0.0
 11
2573.248177564245
 21
329.4470802015865
 31
0.0
  0
LINE
  5
3A8
330
37
100
AcDbEntity
  8
Sichtbar (ISO)
100
AcDbLine
 10
2573.081298276109
 20
329.6139594897222
 30
0.0
 11
2573.081298276109
 21
336.9470802016144
 31
0.0
  0
LINE
  5
3A9
330
37
100
AcDbEntity
  8
Sichtbar (ISO)
100
AcDbLine
 10
2573.081298276109
 20
366.9470802016145
 30
0.0
 11
2573.081298276109
 21
691.9470802016271
 31
0.0
  0
LINE
  5
3AA
330
37
100
AcDbEntity
  8
Sichtbar (ISO)
100
AcDbLine
 10
2573.081298276109
 20
721.9470802016271
 30
0.0
 11
2573.081298276109
 21
729.2802009134494
 31
0.0
  0
LINE
  5
3AB
330
37
100
AcDbEntity
  8
Sichtbar (ISO)
100
AcDbLine
 10
2565.875661518557
 20
366.9470802016145
 30
0.0
 11
2565.875661518557
 21
369.4470802015682
 31
0.0
  0
LINE
  5
3AC
330
37
100
AcDbEntity
  8
Sichtbar (ISO)
100
AcDbLine
 10
2565.875661518557
 20
689.4470802015672
 30
0.0
 11
2565.875661518557
 21
691.9470802016267
 31
0.0
  0
LINE
  5
3AD
330
37
100
AcDbEntity
  8
Sichtbar (ISO)
100
AcDbLine
 10
2465.505635731535
 20
689.4470802015656
 30
0.0
 11
2465.505635731535
 21
369.4470802015667
 31
0.0
  0
LINE
  5
3AE
330
37
100
AcDbEntity
  8
Sichtbar (ISO)
100
AcDbLine
 10
2466.48621670097
 20
369.4470802015725
 30
0.0
 11
2466.48621670097
 21
689.4470802015717
 31
0.0
  0
ELLIPSE
  5
3AF
330
37
100
AcDbEntity
  8
Sichtbar (ISO)
100
AcDbEllipse
 10
2890.975091735763
 20
529.4470802015658
 30
0.0
 11
-349.5790735580641
 21
0.0000000000050768
 31
0.0
210
0.0
220
0.0
230
1.0
 40
0.5506622522930451
 41
1.791039971412839
 42
4.492145335766706
  0
LINE
  5
3B0
330
37
100
AcDbEntity
  8
Sichtbar (ISO)
100
AcDbLine
 10
2566.365952003275
 20
691.9470802016267
 30
0.0
 11
2566.365952003275
 21
689.4470802015703
 31
0.0
  0
LINE
  5
3B1
330
37
100
AcDbEntity
  8
Sichtbar (ISO)
100
AcDbLine
 10
2466.48621670097
 20
369.4470802015725
 30
0.0
 11
2566.365952003275
 21
369.4470802015711
 31
0.0
  0
LINE
  5
3B2
330
37
100
AcDbEntity
  8
Sichtbar (ISO)
100
AcDbLine
 10
2465.505635731535
 20
369.4470802015667
 30
0.0
 11
2466.486216700972
 21
369.4470802015725
 31
0.0
  0
LINE
  5
3B3
330
37
100
AcDbEntity
  8
Sichtbar (ISO)
100
AcDbLine
 10
2566.365952003275
 20
369.4470802015711
 30
0.0
 11
2566.365952003275
 21
366.9470802016145
 31
0.0
  0
LINE
  5
3B4
330
37
100
AcDbEntity
  8
Sichtbar (ISO)
100
AcDbLine
 10
2466.486216700972
 20
689.4470802015717
 30
0.0
 11
2465.505635731535
 21
689.4470802015656
 31
0.0
  0
LINE
  5
3B5
330
37
100
AcDbEntity
  8
Sichtbar (ISO)
100
AcDbLine
 10
2566.365952003275
 20
689.4470802015703
 30
0.0
 11
2466.48621670097
 21
689.4470802015717
 31
0.0
  0
LINE
  5
3B6
330
37
100
AcDbEntity
  8
Sichtbar (ISO)
100
AcDbLine
 10
2129.959846806947
 20
306.9470802015048
 30
0.0
 11
2129.959846806947
 21
751.947080201505
 31
0.0
  0
LINE
  5
3B7
330
37
100
AcDbEntity
  8
Sichtbar (ISO)
100
AcDbLine
 10
2155.959846806948
 20
424.7414433381035
 30
0.0
 11
2155.959846806948
 21
306.9470802015048
 31
0.0
  0
LINE
  5
3B8
330
37
100
AcDbEntity
  8
Sichtbar (ISO)
100
AcDbLine
 10
2155.959846806948
 20
751.9470802015048
 30
0.0
 11
2155.959846806948
 21
634.1527170650226
 31
0.0
  0
LINE
  5
3B9
330
37
100
AcDbEntity
  8
Sichtbar (ISO)
100
AcDbLine
 10
2155.959846806948
 20
306.9470802015048
 30
0.0
 11
2129.959846806947
 21
306.9470802015048
 31
0.0
  0
LINE
  5
3BA
330
37
100
AcDbEntity
  8
Sichtbar (ISO)
100
AcDbLine
 10
2155.959846806948
 20
751.9470802015048
 30
0.0
 11
2129.959846806947
 21
751.9470802015048
 31
0.0
  0
LINE
  5
3BB
330
37
100
AcDbEntity
  8
Sichtbar (ISO)
100
AcDbLine
 10
1655.959846806947
 20
632.9330496449456
 30
0.0
 11
1655.959846806947
 21
751.947080201505
 31
0.0
  0
LINE
  5
3BC
330
37
100
AcDbEntity
  8
Sichtbar (ISO)
100
AcDbLine
 10
1655.959846806947
 20
306.9470802015048
 30
0.0
 11
1655.959846806947
 21
425.9611107581813
 31
0.0
  0
LINE
  5
3BD
330
37
100
AcDbEntity
  8
Sichtbar (ISO)
100
AcDbLine
 10
1681.959846806947
 20
306.9470802015051
 30
0.0
 11
1681.959846806947
 21
751.947080201505
 31
0.0
  0
LINE
  5
3BE
330
37
100
AcDbEntity
  8
Sichtbar (ISO)
100
AcDbLine
 10
1681.959846806947
 20
306.9470802015048
 30
0.0
 11
1655.959846806947
 21
306.9470802015048
 31
0.0
  0
LINE
  5
3BF
330
37
100
AcDbEntity
  8
Sichtbar (ISO)
100
AcDbLine
 10
1681.959846806947
 20
751.947080201505
 30
0.0
 11
1655.959846806947
 21
751.947080201505
 31
0.0
  0
LINE
  5
3C0
330
37
100
AcDbEntity
  8
Sichtbar (ISO)
100
AcDbLine
 10
1681.959846806947
 20
691.3970802015048
 30
0.0
 11
1828.959846806947
 21
691.3970802015048
 31
0.0
  0
LINE
  5
3C1
330
37
100
AcDbEntity
  8
Sichtbar (ISO)
100
AcDbLine
 10
1984.959846806948
 20
691.3970802015048
 30
0.0
 11
2129.959846806947
 21
691.3970802015048
 31
0.0
  0
LINE
  5
3C2
330
37
100
AcDbEntity
  8
Sichtbar (ISO)
100
AcDbLine
 10
1681.959846806947
 20
367.4970802015049
 30
0.0
 11
1828.959846806947
 21
367.4970802015049
 31
0.0
  0
LINE
  5
3C3
330
37
100
AcDbEntity
  8
Sichtbar (ISO)
100
AcDbLine
 10
1984.959846806948
 20
367.4970802015049
 30
0.0
 11
2129.959846806947
 21
367.4970802015049
 31
0.0
  0
LINE
  5
3C4
330
37
100
AcDbEntity
  8
Sichtbar (ISO)
100
AcDbLine
 10
1984.959846806948
 20
759.4470802015376
 30
0.0
 11
1984.959846806948
 21
639.447080201573
 31
0.0
  0
LINE
  5
3C5
330
37
100
AcDbEntity
  8
Sichtbar (ISO)
100
AcDbLine
 10
1828.959846806947
 20
759.4470802015376
 30
0.0
 11
1984.959846806948
 21
759.4470802015376
 31
0.0
  0
LINE
  5
3C6
330
37
100
AcDbEntity
  8
Sichtbar (ISO)
100
AcDbLine
 10
1828.959846806947
 20
639.4470802015733
 30
0.0
 11
1828.959846806947
 21
759.4470802015376
 31
0.0
  0
LINE
  5
3C7
330
37
100
AcDbEntity
  8
Sichtbar (ISO)
100
AcDbLine
 10
1984.959846806948
 20
639.447080201573
 30
0.0
 11
1828.959846806947
 21
639.4470802015733
 31
0.0
  0
LINE
  5
3C8
330
37
100
AcDbEntity
  8
Sichtbar (ISO)
100
AcDbLine
 10
1984.959846806948
 20
419.4470802015731
 30
0.0
 11
1984.959846806948
 21
639.447080201573
 31
0.0
  0
LINE
  5
3C9
330
37
100
AcDbEntity
  8
Sichtbar (ISO)
100
AcDbLine
 10
1828.959846806947
 20
639.4470802015733
 30
0.0
 11
1828.959846806947
 21
419.4470802015731
 31
0.0
  0
LINE
  5
3CA
330
37
100
AcDbEntity
  8
Sichtbar (ISO)
100
AcDbLine
 10
1984.959846806948
 20
419.4470802015731
 30
0.0
 11
1984.959846806948
 21
299.4470802015376
 31
0.0
  0
LINE
  5
3CB
330
37
100
AcDbEntity
  8
Sichtbar (ISO)
100
AcDbLine
 10
1828.959846806947
 20
419.4470802015731
 30
0.0
 11
1984.959846806948
 21
419.4470802015733
 31
0.0
  0
LINE
  5
3CC
330
37
100
AcDbEntity
  8
Sichtbar (ISO)
100
AcDbLine
 10
1828.959846806947
 20
299.4470802015377
 30
0.0
 11
1828.959846806947
 21
419.4470802015731
 31
0.0
  0
LINE
  5
3CD
330
37
100
AcDbEntity
  8
Sichtbar (ISO)
100
AcDbLine
 10
1984.959846806948
 20
299.4470802015376
 30
0.0
 11
1828.959846806947
 21
299.4470802015376
 31
0.0
  0
CIRCLE
  5
3CE
330
37
100
AcDbEntity
  8
Sichtbar (ISO)
100
AcDbCircle
 10
1905.959846806948
 20
529.4470802016031
 30
0.0
 40
54.0
  0
CIRCLE
  5
3CF
330
37
100
AcDbEntity
  8
Sichtbar (ISO)
100
AcDbCircle
 10
1905.959846806948
 20
529.4470802015979
 30
0.0
 40
56.5
  0
CIRCLE
  5
3D0
330
37
100
AcDbEntity
  8
Sichtbar (ISO)
100
AcDbCircle
 10
1905.959846806948
 20
529.4470802015971
 30
0.0
 40
58.50000000000001
  0
LINE
  5
3D1
330
37
100
AcDbEntity
  8
Sichtbar (ISO)
100
AcDbLine
 10
900.9598468069471
 20
751.9470802015708
 30
0.0
 11
930.9598468069474
 21
751.9470802015708
 31
0.0
  0
LINE
  5
3D2
330
37
100
AcDbEntity
  8
Sichtbar (ISO)
100
AcDbLine
 10
900.9598468069476
 20
306.9470802015709
 30
0.0
 11
900.9598468069476
 21
751.9470802015705
 31
0.0
  0
LINE
  5
3D3
330
37
100
AcDbEntity
  8
Sichtbar (ISO)
100
AcDbLine
 10
930.9598468069474
 20
306.9470802015709
 30
0.0
 11
900.9598468069476
 21
306.9470802015709
 31
0.0
  0
LINE
  5
3D4
330
37
100
AcDbEntity
  8
Sichtbar (ISO)
100
AcDbLine
 10
930.9598468069474
 20
751.9470802016368
 30
0.0
 11
930.9598468069474
 21
306.9470802016367
 31
0.0
  0
LINE
  5
3D5
330
37
100
AcDbEntity
  8
Sichtbar (ISO)
100
AcDbLine
 10
930.9598468069474
 20
306.9470802016367
 30
0.0
 11
970.9598468069472
 21
306.9470802016367
 31
0.0
  0
LINE
  5
3D6
330
37
100
AcDbEntity
  8
Sichtbar (ISO)
100
AcDbLine
 10
970.9598468069472
 20
306.9470802016367
 30
0.0
 11
970.9598468069472
 21
751.9470802016368
 31
0.0
  0
LINE
  5
3D7
330
37
100
AcDbEntity
  8
Sichtbar (ISO)
100
AcDbLine
 10
930.9598468069474
 20
751.9470802016368
 30
0.0
 11
970.9598468069472
 21
751.9470802016367
 31
0.0
  0
LINE
  5
3D8
330
37
100
AcDbEntity
  8
Sichtbar (ISO)
100
AcDbLine
 10
1090.959846806947
 20
306.9470802016367
 30
0.0
 11
1160.959846806947
 21
306.9470802016367
 31
0.0
  0
LINE
  5
3D9
330
37
100
AcDbEntity
  8
Sichtbar (ISO)
100
AcDbLine
 10
1090.959846806947
 20
751.9470802016367
 30
0.0
 11
1160.959846806947
 21
751.9470802016367
 31
0.0
  0
LINE
  5
3DA
330
37
100
AcDbEntity
  8
Sichtbar (ISO)
100
AcDbLine
 10
1085.959846806947
 20
306.9470802016352
 30
0.0
 11
1090.959846806947
 21
306.9470802016367
 31
0.0
  0
LINE
  5
3DB
330
37
100
AcDbEntity
  8
Sichtbar (ISO)
100
AcDbLine
 10
1090.959846806947
 20
706.9470802016367
 30
0.0
 11
1085.959846806947
 21
706.947080201635
 31
0.0
  0
LINE
  5
3DC
330
37
100
AcDbEntity
  8
Sichtbar (ISO)
100
AcDbLine
 10
1090.959846806947
 20
701.947080201635
 30
0.0
 11
1085.959846806947
 21
706.947080201635
 31
0.0
  0
LINE
  5
3DD
330
37
100
AcDbEntity
  8
Sichtbar (ISO)
100
AcDbLine
 10
1090.959846806947
 20
701.947080201635
 30
0.0
 11
1090.959846806947
 21
706.9470802016367
 31
0.0
  0
LINE
  5
3DE
330
37
100
AcDbEntity
  8
Sichtbar (ISO)
100
AcDbLine
 10
1085.959846806947
 20
701.947080201615
 30
0.0
 11
1090.959846806947
 21
701.9470802016217
 31
0.0
  0
LINE
  5
3DF
330
37
100
AcDbEntity
  8
Sichtbar (ISO)
100
AcDbLine
 10
970.9598468069472
 20
701.9470802016053
 30
0.0
 11
985.9598468069473
 21
701.9470802016053
 31
0.0
  0
LINE
  5
3E0
330
37
100
AcDbEntity
  8
Sichtbar (ISO)
100
AcDbLine
 10
985.9598468069473
 20
706.9470802016073
 30
0.0
 11
970.9598468069472
 21
706.947080201607
 31
0.0
  0
LINE
  5
3E1
330
37
100
AcDbEntity
  8
Sichtbar (ISO)
100
AcDbLine
 10
1160.959846806947
 20
706.9470802016367
 30
0.0
 11
1090.959846806947
 21
706.9470802016367
 31
0.0
  0
LINE
  5
3E2
330
37
100
AcDbEntity
  8
Sichtbar (ISO)
100
AcDbLine
 10
1090.959846806947
 20
701.947080201635
 30
0.0
 11
1155.959846806947
 21
701.947080201635
 31
0.0
  0
LINE
  5
3E3
330
37
100
AcDbEntity
  8
Sichtbar (ISO)
100
AcDbLine
 10
1155.959846806947
 20
701.947080201635
 30
0.0
 11
1160.959846806947
 21
706.9470802016367
 31
0.0
  0
LINE
  5
3E4
330
37
100
AcDbEntity
  8
Sichtbar (ISO)
100
AcDbLine
 10
1090.959846806947
 20
751.9470802016367
 30
0.0
 11
1085.959846806947
 21
751.9470802016351
 31
0.0
  0
LINE
  5
3E5
330
37
100
AcDbEntity
  8
Sichtbar (ISO)
100
AcDbLine
 10
1085.959846806948
 20
751.9470802016351
 30
0.0
 11
1085.959846806947
 21
706.947080201635
 31
0.0
  0
LINE
  5
3E6
330
37
100
AcDbEntity
  8
Sichtbar (ISO)
100
AcDbLine
 10
1090.959846806947
 20
706.9470802016367
 30
0.0
 11
1090.959846806947
 21
751.9470802016367
 31
0.0
  0
LINE
  5
3E7
330
37
100
AcDbEntity
  8
Sichtbar (ISO)
100
AcDbLine
 10
1090.959846806947
 20
351.9470802016367
 30
0.0
 11
1090.959846806947
 21
356.9470802016352
 31
0.0
  0
LINE
  5
3E8
330
37
100
AcDbEntity
  8
Sichtbar (ISO)
100
AcDbLine
 10
1085.959846806947
 20
351.9470802016352
 30
0.0
 11
1090.959846806947
 21
356.9470802016352
 31
0.0
  0
LINE
  5
3E9
330
37
100
AcDbEntity
  8
Sichtbar (ISO)
100
AcDbLine
 10
1085.959846806947
 20
351.9470802016352
 30
0.0
 11
1090.959846806947
 21
351.9470802016367
 31
0.0
  0
LINE
  5
3EA
330
37
100
AcDbEntity
  8
Sichtbar (ISO)
100
AcDbLine
 10
1090.959846806947
 20
356.9470802016219
 30
0.0
 11
1085.959846806948
 21
356.9470802016152
 31
0.0
  0
LINE
  5
3EB
330
37
100
AcDbEntity
  8
Sichtbar (ISO)
100
AcDbLine
 10
970.9598468069472
 20
351.947080201607
 30
0.0
 11
985.9598468069473
 21
351.947080201607
 31
0.0
  0
LINE
  5
3EC
330
37
100
AcDbEntity
  8
Sichtbar (ISO)
100
AcDbLine
 10
985.9598468069476
 20
356.9470802016056
 30
0.0
 11
970.9598468069472
 21
356.9470802016056
 31
0.0
  0
LINE
  5
3ED
330
37
100
AcDbEntity
  8
Sichtbar (ISO)
100
AcDbLine
 10
1155.959846806947
 20
356.9470802016352
 30
0.0
 11
1090.959846806947
 21
356.9470802016352
 31
0.0
  0
LINE
  5
3EE
330
37
100
AcDbEntity
  8
Sichtbar (ISO)
100
AcDbLine
 10
1090.959846806947
 20
351.9470802016367
 30
0.0
 11
1160.959846806947
 21
351.9470802016367
 31
0.0
  0
LINE
  5
3EF
330
37
100
AcDbEntity
  8
Sichtbar (ISO)
100
AcDbLine
 10
1160.959846806947
 20
351.9470802016367
 30
0.0
 11
1155.959846806947
 21
356.9470802016352
 31
0.0
  0
LINE
  5
3F0
330
37
100
AcDbEntity
  8
Sichtbar (ISO)
100
AcDbLine
 10
1090.959846806947
 20
306.9470802016367
 30
0.0
 11
1090.959846806947
 21
351.9470802016367
 31
0.0
  0
LINE
  5
3F1
330
37
100
AcDbEntity
  8
Sichtbar (ISO)
100
AcDbLine
 10
1085.959846806947
 20
351.9470802016352
 30
0.0
 11
1085.959846806947
 21
306.9470802016352
 31
0.0
  0
LINE
  5
3F2
330
37
100
AcDbEntity
  8
Sichtbar (ISO)
100
AcDbLine
 10
985.9598468069473
 20
306.947080201607
 30
0.0
 11
970.9598468069472
 21
306.947080201607
 31
0.0
  0
LINE
  5
3F3
330
37
100
AcDbEntity
  8
Sichtbar (ISO)
100
AcDbLine
 10
970.9598468069472
 20
751.947080201607
 30
0.0
 11
985.9598468069473
 21
751.947080201607
 31
0.0
  0
LINE
  5
3F4
330
37
100
AcDbEntity
  8
Sichtbar (ISO)
100
AcDbLine
 10
1160.959846806947
 20
706.9470802016367
 30
0.0
 11
1160.959846806947
 21
751.9470802016367
 31
0.0
  0
LINE
  5
3F5
330
37
100
AcDbEntity
  8
Sichtbar (ISO)
100
AcDbLine
 10
1160.959846806947
 20
306.9470802016367
 30
0.0
 11
1160.959846806947
 21
351.9470802016367
 31
0.0
  0
LINE
  5
3F6
330
37
100
AcDbEntity
  8
Sichtbar (ISO)
100
AcDbLine
 10
985.9598468069476
 20
306.947080201622
 30
0.0
 11
1085.959846806948
 21
306.947080201622
 31
0.0
  0
LINE
  5
3F7
330
37
100
AcDbEntity
  8
Sichtbar (ISO)
100
AcDbLine
 10
985.9598468069476
 20
751.9470802016217
 30
0.0
 11
1085.959846806948
 21
751.9470802016217
 31
0.0
  0
LINE
  5
3F8
330
37
100
AcDbEntity
  8
Sichtbar (ISO)
100
AcDbLine
 10
985.9598468069476
 20
361.947080201622
 30
0.0
 11
985.9598468069473
 21
696.9470802016218
 31
0.0
  0
LINE
  5
3F9
330
37
100
AcDbEntity
  8
Sichtbar (ISO)
100
AcDbLine
 10
1085.959846806947
 20
706.9470802016351
 30
0.0
 11
1085.959846806947
 21
351.9470802016352
 31
0.0
  0
LINE
  5
3FA
330
37
100
AcDbEntity
  8
Sichtbar (ISO)
100
AcDbLine
 10
985.9598468069473
 20
751.9470802016217
 30
0.0
 11
985.9598468069473
 21
696.9470802016218
 31
0.0
  0
LINE
  5
3FB
330
37
100
AcDbEntity
  8
Sichtbar (ISO)
100
AcDbLine
 10
985.9598468069473
 20
361.947080201622
 30
0.0
 11
985.9598468069473
 21
306.947080201622
 31
0.0
  0
LINE
  5
3FC
330
37
100
AcDbEntity
  8
Sichtbar (ISO)
100
AcDbLine
 10
1655.959846806947
 20
425.9611107581811
 30
0.0
 11
1655.959846806947
 21
429.5911302663141
 31
0.0
  0
LINE
  5
3FD
330
37
100
AcDbEntity
  8
Sichtbar (ISO)
100
AcDbLine
 10
1625.959846806948
 20
429.591130266314
 30
0.0
 11
1625.959846806948
 21
425.9611107581811
 31
0.0
  0
LINE
  5
3FE
330
37
100
AcDbEntity
  8
Sichtbar (ISO)
100
AcDbLine
 10
1655.959846806947
 20
629.3030301368141
 30
0.0
 11
1655.959846806947
 21
632.9330496449454
 31
0.0
  0
LINE
  5
3FF
330
37
100
AcDbEntity
  8
Sichtbar (ISO)
100
AcDbLine
 10
1625.959846806948
 20
632.9330496449454
 30
0.0
 11
1625.959846806948
 21
629.3030301368141
 31
0.0
  0
LINE
  5
400
330
37
100
AcDbEntity
  8
Sichtbar (ISO)
100
AcDbLine
 10
1655.959846806947
 20
504.6983428600571
 30
0.0
 11
1655.959846806947
 21
429.591130266314
 31
0.0
  0
LINE
  5
401
330
37
100
AcDbEntity
  8
Sichtbar (ISO)
100
AcDbLine
 10
1625.959846806948
 20
504.6983428600571
 30
0.0
 11
1625.959846806948
 21
429.591130266314
 31
0.0
  0
LINE
  5
402
330
37
100
AcDbEntity
  8
Sichtbar (ISO)
100
AcDbLine
 10
1625.959846806948
 20
306.947080201505
 30
0.0
 11
1625.959846806948
 21
425.9611107581813
 31
0.0
  0
LINE
  5
403
330
37
100
AcDbEntity
  8
Sichtbar (ISO)
100
AcDbLine
 10
1625.959846806948
 20
632.9330496449454
 30
0.0
 11
1625.959846806948
 21
751.947080201505
 31
0.0
  0
LINE
  5
404
330
37
100
AcDbEntity
  8
Sichtbar (ISO)
100
AcDbLine
 10
1655.959846806947
 20
306.947080201505
 30
0.0
 11
1655.959846806947
 21
425.9611107581813
 31
0.0
  0
LINE
  5
405
330
37
100
AcDbEntity
  8
Sichtbar (ISO)
100
AcDbLine
 10
1655.959846806947
 20
632.9330496449451
 30
0.0
 11
1655.959846806947
 21
751.9470802015048
 31
0.0
  0
LINE
  5
406
330
37
100
AcDbEntity
  8
Sichtbar (ISO)
100
AcDbLine
 10
1625.959846806948
 20
504.6983428600571
 30
0.0
 11
1625.959846806948
 21
554.1958175431155
 31
0.0
  0
LINE
  5
407
330
37
100
AcDbEntity
  8
Sichtbar (ISO)
100
AcDbLine
 10
1625.959846806948
 20
629.3030301368141
 30
0.0
 11
1625.959846806948
 21
554.1958175431155
 31
0.0
  0
LINE
  5
408
330
37
100
AcDbEntity
  8
Sichtbar (ISO)
100
AcDbLine
 10
1655.959846806947
 20
629.3030301368141
 30
0.0
 11
1655.959846806947
 21
554.1958175431155
 31
0.0
  0
LINE
  5
409
330
37
100
AcDbEntity
  8
Sichtbar (ISO)
100
AcDbLine
 10
1655.959846806947
 20
504.6983428600571
 30
0.0
 11
1655.959846806947
 21
554.1958175431155
 31
0.0
  0
LINE
  5
40A
330
37
100
AcDbEntity
  8
Sichtbar (ISO)
100
AcDbLine
 10
1655.959846806947
 20
306.9470802015051
 30
0.0
 11
1625.959846806948
 21
306.9470802015051
 31
0.0
  0
LINE
  5
40B
330
37
100
AcDbEntity
  8
Sichtbar (ISO)
100
AcDbLine
 10
1655.959846806947
 20
751.947080201505
 30
0.0
 11
1625.959846806948
 21
751.947080201505
 31
0.0
  0
LINE
  5
40C
330
37
100
AcDbEntity
  8
Sichtbar (ISO)
100
AcDbLine
 10
1625.959846806948
 20
351.947080201505
 30
0.0
 11
1160.959846806947
 21
351.947080201505
 31
0.0
  0
LINE
  5
40D
330
37
100
AcDbEntity
  8
Sichtbar (ISO)
100
AcDbLine
 10
1625.959846806948
 20
706.9470802015049
 30
0.0
 11
1160.959846806947
 21
706.9470802015049
 31
0.0
  0
LINE
  5
40E
330
37
100
AcDbEntity
  8
Sichtbar (ISO)
100
AcDbLine
 10
1085.959846806947
 20
521.9470802016218
 30
0.0
 11
1625.959846806948
 21
521.9470802015656
 31
0.0
  0
LINE
  5
40F
330
37
100
AcDbEntity
  8
Sichtbar (ISO)
100
AcDbLine
 10
1625.959846806948
 20
536.9470802015658
 30
0.0
 11
1085.959846806948
 21
536.9470802016218
 31
0.0
  0
LINE
  5
410
330
37
100
AcDbEntity
  8
Sichtbar (ISO)
100
AcDbLine
 10
1085.959846806947
 20
521.9470802016218
 30
0.0
 11
1085.959846806947
 21
536.9470802016218
 31
0.0
  0
ENDSEC
  0
SECTION
  2
OBJECTS
  0
DICTIONARY
  5
C
330
0
100
AcDbDictionary
281
     1
  3
ACAD_COLOR
350
30
  3
ACAD_GROUP
350
D
  3
ACAD_LAYOUT
350
2F
  3
ACAD_MATERIAL
350
10
  3
ACAD_MLINESTYLE
350
2C
  3
ACAD_PLOTSETTINGS
350
2E
  3
ACAD_PLOTSTYLENAME
350
E
  3
ACAD_TABLESTYLE
350
31
  3
ACAD_VISUALSTYLE
350
14
  3
AcDbVariableDictionary
350
411
  3
DWGPROPS
350
42B
  0
DICTIONARY
  5
435
330
264
100
AcDbDictionary
280
     1
281
     1
  3
ACAD_MTEXT_RT
360
436
  0
DICTIONARY
  5
30
102
{ACAD_REACTORS
330
C
102
}
330
C
100
AcDbDictionary
281
     1
  0
DICTIONARY
  5
D
102
{ACAD_REACTORS
330
C
102
}
330
C
100
AcDbDictionary
281
     1
  0
DICTIONARY
  5
2F
102
{ACAD_REACTORS
330
C
102
}
330
C
100
AcDbDictionary
281
     1
  3
Layout1
350
36
  3
Layout2
350
3E
  3
Model
350
3A
  0
DICTIONARY
  5
10
102
{ACAD_REACTORS
330
C
102
}
330
C
100
AcDbDictionary
281
     1
  3
ByBlock
350
12
  3
ByLayer
350
11
  3
Global
350
13
  0
DICTIONARY
  5
2C
102
{ACAD_REACTORS
330
C
102
}
330
C
100
AcDbDictionary
281
     1
  3
Standard
350
2D
  0
DICTIONARY
  5
2E
102
{ACAD_REACTORS
330
C
102
}
330
C
100
AcDbDictionary
281
     1
  0
ACDBDICTIONARYWDFLT
  5
E
102
{ACAD_REACTORS
330
C
102
}
330
C
100
AcDbDictionary
281
     1
  3
Normal
350
F
100
AcDbDictionaryWithDefault
340
F
  0
DICTIONARY
  5
31
102
{ACAD_REACTORS
330
C
102
}
330
C
100
AcDbDictionary
281
     1
  3
Standard
350
32
  0
DICTIONARY
  5
14
102
{ACAD_REACTORS
330
C
102
}
330
C
100
AcDbDictionary
281
     1
  3
2dWireframe
350
1A
  3
3D Hidden
350
1C
  3
3dWireframe
350
1B
  3
Basic
350
19
  3
Brighten
350
20
  3
ColorChange
350
24
  3
Conceptual
350
1D
  3
Dim
350
1F
  3
Facepattern
350
23
  3
Flat
350
15
  3
FlatWithEdges
350
16
  3
Gouraud
350
17
  3
GouraudWithEdges
350
18
  3
Linepattern
350
22
  3
Realistic
350
1E
  3
Thicken
350
21
  0
DICTIONARY
  5
411
102
{ACAD_REACTORS
330
C
102
}
330
C
100
AcDbDictionary
281
     1
  3
CTABLESTYLE
350
412
  3
DIMASSOC
350
416
  3
HIDETEXT
350
415
  3
INDEXCTL
350
414
  3
SORTENTS
350
413
  0
XRECORD
  5
42B
102
{ACAD_REACTORS
330
C
102
}
330
C
100
AcDbXrecord
280
     1
  1
DWGPROPS COOKIE
  2
Optimale-Länge
  3

  4
Reinhardt
  6

  7

  8

  9
1:1
300
Manager=
301
Firma=
302
Kategorie=
303
Bauteilnummer=Alligator300 KL-Flansch
304
Bezeichnung=
305
Projekt=CAD extern
306
Konstrukteur=Reinhardt
307
Ingenieur=
308
Bevollmächtigter=300
309
Kostenstelle=
 40
0.0000397337962963
 41
2454089.403482824
 42
2454089.403482824
  1

 90
       16
300
Zulieferer=Zangenberg
300
Benutzerstatus=
300
Konstruktionsstatus=InBearbeitung
300
Kontrolliert von=
300
Konstruktion genehmigt von=
300
Fertigung genehmigt von=
  0
XRECORD
  5
436
102
{ACAD_REACTORS
330
435
102
}
330
435
100
AcDbXrecord
280
     1
 40
11072.0
  1
Maßstab:1:1
  0
LAYOUT
  5
36
102
{ACAD_XDICTIONARY
360
42E
102
}
102
{ACAD_REACTORS
330
2F
102
}
330
2F
100
AcDbPlotSettings
  1

  2

  4

  6

 40
0.0
 41
0.0
 42
0.0
 43
0.0
 44
0.0
 45
0.0
 46
0.0
 47
0.0
 48
0.0
 49
0.0
140
0.0
141
0.0
142
1.0
143
1.0
 70
   688
 72
     0
 73
     0
 74
     5
  7

 75
    16
147
1.0
148
0.0
149
0.0
100
AcDbLayout
  1
Layout1
 70
     1
 71
     1
 10
0.0
 20
0.0
 11
12.0
 21
9.0
 12
0.0
 22
0.0
 32
0.0
 14
0.0
 24
0.0
 34
0.0
 15
0.0
 25
0.0
 35
0.0
146
0.0
 13
0.0
 23
0.0
 33
0.0
 16
1.0
 26
0.0
 36
0.0
 17
0.0
 27
1.0
 37
0.0
 76
     0
330
33
  0
LAYOUT
  5
3E
102
{ACAD_XDICTIONARY
360
432
102
}
102
{ACAD_REACTORS
330
2F
102
}
330
2F
100
AcDbPlotSettings
  1

  2

  4

  6

 40
0.0
 41
0.0
 42
0.0
 43
0.0
 44
0.0
 45
0.0
 46
0.0
 47
0.0
 48
0.0
 49
0.0
140
0.0
141
0.0
142
1.0
143
1.0
 70
   688
 72
     0
 73
     0
 74
     5
  7

 75
    16
147
1.0
148
0.0
149
0.0
100
AcDbLayout
  1
Layout2
 70
     1
 71
     2
 10
0.0
 20
0.0
 11
12.0
 21
9.0
 12
0.0
 22
0.0
 32
0.0
 14
0.0
 24
0.0
 34
0.0
 15
0.0
 25
0.0
 35
0.0
146
0.0
 13
0.0
 23
0.0
 33
0.0
 16
1.0
 26
0.0
 36
0.0
 17
0.0
 27
1.0
 37
0.0
 76
     0
330
3B
  0
LAYOUT
  5
3A
102
{ACAD_XDICTIONARY
360
430
102
}
102
{ACAD_REACTORS
330
2F
102
}
330
2F
100
AcDbPlotSettings
  1

  2

  4

  6

 40
0.0
 41
0.0
 42
0.0
 43
0.0
 44
0.0
 45
0.0
 46
0.0
 47
0.0
 48
0.0
 49
0.0
140
0.0
141
0.0
142
1.0
143
1.0
 70
  1712
 72
     0
 73
     0
 74
     0
  7

 75
     0
147
1.0
148
0.0
149
0.0
100
AcDbLayout
  1
Model
 70
     1
 71
     0
 10
0.0
 20
0.0
 11
12.0
 21
9.0
 12
0.0
 22
0.0
 32
0.0
 14
0.0
 24
0.0
 34
0.0
 15
0.0
 25
0.0
 35
0.0
146
0.0
 13
0.0
 23
0.0
 33
0.0
 16
1.0
 26
0.0
 36
0.0
 17
0.0
 27
1.0
 37
0.0
 76
     0
330
37
  0
MATERIAL
  5
12
102
{ACAD_XDICTIONARY
360
41A
102
}
102
{ACAD_REACTORS
330
10
102
}
330
10
100
AcDbMaterial
  1
ByBlock
  0
MATERIAL
  5
11
102
{ACAD_XDICTIONARY
360
418
102
}
102
{ACAD_REACTORS
330
10
102
}
330
10
100
AcDbMaterial
  1
ByLayer
  0
MATERIAL
  5
13
102
{ACAD_XDICTIONARY
360
41C
102
}
102
{ACAD_REACTORS
330
10
102
}
330
10
100
AcDbMaterial
  1
Global
  0
MLINESTYLE
  5
2D
102
{ACAD_REACTORS
330
2C
102
}
330
2C
100
AcDbMlineStyle
  2
STANDARD
 70
     0
  3

 62
   256
 51
90.0
 52
90.0
 71
     2
 49
0.5
 62
   256
  6
BYLAYER
 49
-0.5
 62
   256
  6
BYLAYER
  0
ACDBPLACEHOLDER
  5
F
102
{ACAD_REACTORS
330
E
102
}
330
E
  0
TABLESTYLE
  5
32
102
{ACAD_XDICTIONARY
360
42C
102
}
102
{ACAD_REACTORS
330
31
102
}
330
31
100
AcDbTableStyle
  3
Standard
 70
     0
 71
     0
 40
0.06
 41
0.06
280
     0
281
     0
  7
Standard
140
0.18
170
     2
 62
     0
 63
     7
283
     0
274
    -2
284
     1
 64
     0
275
    -2
285
     1
 65
     0
276
    -2
286
     1
 66
     0
277
    -2
287
     1
 67
     0
278
    -2
288
     1
 68
     0
279
    -2
289
     1
 69
     0
  7
Standard
140
0.25
170
     5
 62
     0
 63
     7
283
     0
274
    -2
284
     1
 64
     0
275
    -2
285
     1
 65
     0
276
    -2
286
     1
 66
     0
277
    -2
287
     1
 67
     0
278
    -2
288
     1
 68
     0
279
    -2
289
     1
 69
     0
  7
Standard
140
0.18
170
     5
 62
     0
 63
     7
283
     0
274
    -2
284
     1
 64
     0
275
    -2
285
     1
 65
     0
276
    -2
286
     1
 66
     0
277
    -2
287
     1
 67
     0
278
    -2
288
     1
 68
     0
279
    -2
289
     1
 69
     0
  0
VISUALSTYLE
  5
1A
102
{ACAD_REACTORS
330
14
102
}
330
14
100
AcDbVisualStyle
  2
2dWireframe
 70
     4
 71
     0
 72
     2
 73
     0
 90
        0
 40
-0.6
 41
-30.0
 62
     5
 63
     7
 74
     1
 91
        4
 64
     7
 65
   257
 75
     1
175
     1
 42
1.0
 92
        0
 66
   257
 43
1.0
 76
     1
 77
     6
 78
     2
 67
     7
 79
     5
170
     0
171
     0
290
     0
174
     0
 93
        1
 44
0.0
173
     0
291
     0
 45
0.0
1001
ACAD
1000
AcDbSavedByObjectVersion
1070
     0
1000
AcDbSavedByObjectVersion
1070
     0
  0
VISUALSTYLE
  5
1C
102
{ACAD_REACTORS
330
14
102
}
330
14
100
AcDbVisualStyle
  2
3D Hidden
 70
     6
 71
     1
 72
     2
 73
     2
 90
        0
 40
-0.6
 41
-30.0
 62
     5
 63
     7
 74
     2
 91
        2
 64
     7
 65
   257
 75
     2
175
     1
 42
40.0
 92
        0
 66
   257
 43
1.0
 76
     1
 77
     6
 78
     2
 67
     7
 79
     3
170
     0
171
     0
290
     0
174
     0
 93
        1
 44
0.0
173
     0
291
     0
 45
0.0
1001
ACAD
1000
AcDbSavedByObjectVersion
1070
     0
1000
AcDbSavedByObjectVersion
1070
     0
  0
VISUALSTYLE
  5
1B
102
{ACAD_REACTORS
330
14
102
}
330
14
100
AcDbVisualStyle
  2
3dWireframe
 70
     5
 71
     0
 72
     2
 73
     0
 90
        0
 40
-0.6
 41
-30.0
 62
     5
 63
     7
 74
     1
 91
        4
 64
     7
 65
   257
 75
     1
175
     1
 42
1.0
 92
        0
 66
   257
 43
1.0
 76
     1
 77
     6
 78
     2
 67
     7
 79
     5
170
     0
171
     0
290
     0
174
     0
 93
        1
 44
0.0
173
     0
291
     0
 45
0.0
1001
ACAD
1000
AcDbSavedByObjectVersion
1070
     0
1000
AcDbSavedByObjectVersion
1070
     0
  0
VISUALSTYLE
  5
19
102
{ACAD_REACTORS
330
14
102
}
330
14
100
AcDbVisualStyle
  2
Basic
 70
     7
 71
     1
 72
     0
 73
     1
 90
        0
 40
-0.6
 41
-30.0
 62
     5
 63
     7
 74
     0
 91
        4
 64
     7
 65
   257
 75
     1
175
     1
 42
1.0
 92
        8
 66
     7
 43
1.0
 76
     1
 77
     6
 78
     2
 67
     7
 79
     5
170
     0
171
     0
290
     0
174
     0
 93
        1
 44
0.0
173
     0
291
     1
 45
0.0
1001
ACAD
1000
AcDbSavedByObjectVersion
1070
     0
1000
AcDbSavedByObjectVersion
1070
     0
  0
VISUALSTYLE
  5
20
102
{ACAD_REACTORS
330
14
102
}
330
14
100
AcDbVisualStyle
  2
Brighten
 70
    12
 71
     2
 72
     2
 73
     0
 90
        0
 40
-0.6
 41
-30.0
 62
     5
 63
     7
 74
     1
 91
        4
 64
     7
 65
   257
 75
     1
175
     1
 42
1.0
 92
        8
 66
     7
 43
1.0
 76
     1
 77
     6
 78
     2
 67
     7
 79
     5
170
     0
171
     0
290
     0
174
     0
 93
        1
 44
50.0
173
     0
291
     1
 45
0.0
1001
ACAD
1000
AcDbSavedByObjectVersion
1070
     0
1000
AcDbSavedByObjectVersion
1070
     0
  0
VISUALSTYLE
  5
24
102
{ACAD_REACTORS
330
14
102
}
330
14
100
AcDbVisualStyle
  2
ColorChange
 70
    16
 71
     2
 72
     2
 73
     3
 90
        0
 40
-0.6
 41
-30.0
 62
     5
 63
     8
 74
     1
 91
        4
 64
     7
 65
   257
 75
     1
175
     1
 42
1.0
 92
        8
 66
     8
 43
1.0
 76
     1
 77
     6
 78
     2
 67
     7
 79
     5
170
     0
171
     0
290
     0
174
     0
 93
        1
 44
0.0
173
     0
291
     1
 45
0.0
1001
ACAD
1000
AcDbSavedByObjectVersion
1070
     0
1000
AcDbSavedByObjectVersion
1070
     0
  0
VISUALSTYLE
  5
1D
102
{ACAD_REACTORS
330
14
102
}
330
14
100
AcDbVisualStyle
  2
Conceptual
 70
     9
 71
     3
 72
     2
 73
     0
 90
        0
 40
-0.6
 41
-30.0
 62
     5
 63
     7
 74
     2
 91
        2
 64
     7
 65
   257
 75
     1
175
     1
 42
40.0
 92
        8
 66
     7
 43
1.0
 76
     1
 77
     6
 78
     2
 67
     7
 79
     3
170
     0
171
     0
290
     0
174
     0
 93
        1
 44
0.0
173
     0
291
     0
 45
0.0
1001
ACAD
1000
AcDbSavedByObjectVersion
1070
     0
1000
AcDbSavedByObjectVersion
1070
     0
  0
VISUALSTYLE
  5
1F
102
{ACAD_REACTORS
330
14
102
}
330
14
100
AcDbVisualStyle
  2
Dim
 70
    11
 71
     2
 72
     2
 73
     0
 90
        0
 40
-0.6
 41
-30.0
 62
     5
 63
     7
 74
     1
 91
        4
 64
     7
 65
   257
 75
     1
175
     1
 42
1.0
 92
        8
 66
     7
 43
1.0
 76
     1
 77
     6
 78
     2
 67
     7
 79
     5
170
     0
171
     0
290
     0
174
     0
 93
        1
 44
-50.0
173
     0
291
     1
 45
0.0
1001
ACAD
1000
AcDbSavedByObjectVersion
1070
     0
1000
AcDbSavedByObjectVersion
1070
     0
  0
VISUALSTYLE
  5
23
102
{ACAD_REACTORS
330
14
102
}
330
14
100
AcDbVisualStyle
  2
Facepattern
 70
    15
 71
     2
 72
     2
 73
     0
 90
        0
 40
-0.6
 41
-30.0
 62
     5
 63
     7
 74
     1
 91
        4
 64
     7
 65
   257
 75
     1
175
     1
 42
1.0
 92
        8
 66
     7
 43
1.0
 76
     1
 77
     6
 78
     2
 67
     7
 79
     5
170
     0
171
     0
290
     0
174
     0
 93
        1
 44
0.0
173
     0
291
     1
 45
0.0
1001
ACAD
1000
AcDbSavedByObjectVersion
1070
     0
1000
AcDbSavedByObjectVersion
1070
     0
  0
VISUALSTYLE
  5
15
102
{ACAD_REACTORS
330
14
102
}
330
14
100
AcDbVisualStyle
  2
Flat
 70
     0
 71
     2
 72
     1
 73
     1
 90
        2
 40
-0.6
 41
30.0
 62
     5
 63
     7
 74
     0
 91
        4
 64
     7
 65
   257
 75
     1
175
     1
 42
1.0
 92
        8
 66
     7
 43
1.0
 76
     1
 77
     6
 78
     2
 67
     7
 79
     5
170
     0
171
     0
290
     0
174
     0
 93
       13
 44
0.0
173
     0
291
     1
 45
0.0
1001
ACAD
1000
AcDbSavedByObjectVersion
1070
     0
1000
AcDbSavedByObjectVersion
1070
     0
  0
VISUALSTYLE
  5
16
102
{ACAD_REACTORS
330
14
102
}
330
14
100
AcDbVisualStyle
  2
FlatWithEdges
 70
     1
 71
     2
 72
     1
 73
     1
 90
        2
 40
-0.6
 41
30.0
 62
     5
 63
     7
 74
     1
 91
        4
 64
     7
 65
   257
 75
     1
175
     1
 42
1.0
 92
        0
 66
   257
 43
1.0
 76
     1
 77
     6
 78
     2
 67
     7
 79
     5
170
     0
171
     0
290
     0
174
     0
 93
       13
 44
0.0
173
     0
291
     1
 45
0.0
1001
ACAD
1000
AcDbSavedByObjectVersion
1070
     0
1000
AcDbSavedByObjectVersion
1070
     0
  0
VISUALSTYLE
  5
17
102
{ACAD_REACTORS
330
14
102
}
330
14
100
AcDbVisualStyle
  2
Gouraud
 70
     2
 71
     2
 72
     2
 73
     1
 90
        2
 40
-0.6
 41
30.0
 62
     5
 63
     7
 74
     0
 91
        4
 64
     7
 65
   257
 75
     1
175
     1
 42
1.0
 92
        0
 66
     7
 43
1.0
 76
     1
 77
     6
 78
     2
 67
     7
 79
     5
170
     0
171
     0
290
     0
174
     0
 93
       13
 44
0.0
173
     0
291
     1
 45
0.0
1001
ACAD
1000
AcDbSavedByObjectVersion
1070
     0
1000
AcDbSavedByObjectVersion
1070
     0
  0
VISUALSTYLE
  5
18
102
{ACAD_REACTORS
330
14
102
}
330
14
100
AcDbVisualStyle
  2
GouraudWithEdges
 70
     3
 71
     2
 72
     2
 73
     1
 90
        2
 40
-0.6
 41
30.0
 62
     5
 63
     7
 74
     1
 91
        4
 64
     7
 65
   257
 75
     1
175
     1
 42
1.0
 92
        0
 66
   257
 43
1.0
 76
     1
 77
     6
 78
     2
 67
     7
 79
     5
170
     0
171
     0
290
     0
174
     0
 93
       13
 44
0.0
173
     0
291
     1
 45
0.0
1001
ACAD
1000
AcDbSavedByObjectVersion
1070
     0
1000
AcDbSavedByObjectVersion
1070
     0
  0
VISUALSTYLE
  5
22
102
{ACAD_REACTORS
330
14
102
}
330
14
100
AcDbVisualStyle
  2
Linepattern
 70
    14
 71
     2
 72
     2
 73
     0
 90
        0
 40
-0.6
 41
-30.0
 62
     5
 63
     7
 74
     1
 91
        4
 64
     7
 65
   257
 75
     7
175
     7
 42
1.0
 92
        8
 66
     7
 43
1.0
 76
     1
 77
     6
 78
     2
 67
     7
 79
     5
170
     0
171
     0
290
     0
174
     0
 93
        1
 44
0.0
173
     0
291
     1
 45
0.0
1001
ACAD
1000
AcDbSavedByObjectVersion
1070
     0
1000
AcDbSavedByObjectVersion
1070
     0
  0
VISUALSTYLE
  5
1E
102
{ACAD_REACTORS
330
14
102
}
330
14
100
AcDbVisualStyle
  2
Realistic
 70
     8
 71
     2
 72
     2
 73
     0
 90
        0
 40
-0.6
 41
-30.0
 62
     5
 63
     7
 74
     1
 91
        0
 64
     7
 65
   257
 75
     1
175
     1
 42
1.0
 92
        8
 66
     8
 43
1.0
 76
     1
 77
     6
 78
     2
 67
     7
 79
     5
170
     0
171
     0
290
     0
174
     0
 93
       13
 44
0.0
173
     0
291
     0
 45
0.0
1001
ACAD
1000
AcDbSavedByObjectVersion
1070
     0
1000
AcDbSavedByObjectVersion
1070
     0
  0
VISUALSTYLE
  5
21
102
{ACAD_REACTORS
330
14
102
}
330
14
100
AcDbVisualStyle
  2
Thicken
 70
    13
 71
     2
 72
     2
 73
     0
 90
        0
 40
-0.6
 41
-30.0
 62
     5
 63
     7
 74
     1
 91
        4
 64
     7
 65
   257
 75
     1
175
     1
 42
1.0
 92
       12
 66
     7
 43
1.0
 76
     1
 77
     6
 78
     2
 67
     7
 79
     5
170
     0
171
     0
290
     0
174
     0
 93
        1
 44
0.0
173
     0
291
     1
 45
0.0
1001
ACAD
1000
AcDbSavedByObjectVersion
1070
     0
1000
AcDbSavedByObjectVersion
1070
     0
  0
DICTIONARYVAR
  5
412
102
{ACAD_REACTORS
330
411
102
}
330
411
100
DictionaryVariables
280
     0
  1
STANDARD
  0
DICTIONARYVAR
  5
416
102
{ACAD_REACTORS
330
411
102
}
330
411
100
DictionaryVariables
280
     0
  1
1
  0
DICTIONARYVAR
  5
415
102
{ACAD_REACTORS
330
411
102
}
330
411
100
DictionaryVariables
280
     0
  1
1
  0
DICTIONARYVAR
  5
414
102
{ACAD_REACTORS
330
411
102
}
330
411
100
DictionaryVariables
280
     0
  1
0
  0
DICTIONARYVAR
  5
413
102
{ACAD_REACTORS
330
411
102
}
330
411
100
DictionaryVariables
280
     0
  1
127
  0
DICTIONARY
  5
42E
330
36
100
AcDbDictionary
280
     1
281
     1
  3
ACAD_XREC_ROUNDTRIP
360
42F
  0
DICTIONARY
  5
432
330
3E
100
AcDbDictionary
280
     1
281
     1
  3
ACAD_XREC_ROUNDTRIP
360
433
  0
DICTIONARY
  5
430
330
3A
100
AcDbDictionary
280
     1
281
     1
  3
ACAD_XREC_ROUNDTRIP
360
431
  0
DICTIONARY
  5
41A
330
12
100
AcDbDictionary
280
     1
281
     1
  3
ACAD_XREC_ROUNDTRIP
360
41B
  0
DICTIONARY
  5
418
330
11
100
AcDbDictionary
280
     1
281
     1
  3
ACAD_XREC_ROUNDTRIP
360
419
  0
DICTIONARY
  5
41C
330
13
100
AcDbDictionary
280
     1
281
     1
  3
ACAD_XREC_ROUNDTRIP
360
41D
  0
DICTIONARY
  5
42C
330
32
100
AcDbDictionary
280
     1
281
     1
  3
ACAD_XREC_ROUNDTRIP
360
42D
  0
XRECORD
  5
42F
102
{ACAD_REACTORS
330
42E
102
}
330
42E
100
AcDbXrecord
280
     1
102
SHADEPLOT
 70
     0
102
SHADEPLOTRESLEVEL
 70
     2
102
SHADEPLOTCUSTOMDPI
 70
   300
  0
XRECORD
  5
433
102
{ACAD_REACTORS
330
432
102
}
330
432
100
AcDbXrecord
280
     1
102
SHADEPLOT
 70
     0
102
SHADEPLOTRESLEVEL
 70
     2
102
SHADEPLOTCUSTOMDPI
 70
   300
  0
XRECORD
  5
431
102
{ACAD_REACTORS
330
430
102
}
330
430
100
AcDbXrecord
280
     1
102
SHADEPLOT
 70
     0
102
SHADEPLOTRESLEVEL
 70
     2
102
SHADEPLOTCUSTOMDPI
 70
   300
  0
XRECORD
  5
41B
102
{ACAD_REACTORS
330
41A
102
}
330
41A
100
AcDbXrecord
280
     1
102
MATERIAL
148
0.0
149
0.0
149
0.0
 93
        0
 94
       63
282
     0
 72
     1
 77
     1
171
     1
175
     1
179
     1
273
     0
  0
XRECORD
  5
419
102
{ACAD_REACTORS
330
418
102
}
330
418
100
AcDbXrecord
280
     1
102
MATERIAL
148
0.0
149
0.0
149
0.0
 93
        0
 94
       63
282
     0
 72
     1
 77
     1
171
     1
175
     1
179
     1
273
     0
  0
XRECORD
  5
41D
102
{ACAD_REACTORS
330
41C
102
}
330
41C
100
AcDbXrecord
280
     1
102
MATERIAL
148
0.0
149
0.0
149
0.0
 93
        0
 94
       63
282
     0
 72
     1
 77
     1
171
     1
175
     1
179
     1
273
     0
  0
XRECORD
  5
42D
102
{ACAD_REACTORS
330
42C
102
}
330
42C
100
AcDbXrecord
280
     1
102
ACAD_ROUNDTRIP_PRE2007_TABLESTYLE
 90
      512
 91
        0
  1

 92
      512
 93
        0
  2

 94
      512
 95
        0
  3

  0
ENDSEC
  0
EOF
